rock
 
|tablatures   |lyrics   |discussion forums   |more tabs @ XGuitar.com

Slayer tabs

Hardening Of The Arteries bass tab

Slayer - Hardening The Arteries
Submitted By: Sqweeky
EMail: Blindside831@aol.com

Album: Hell Awaits
Year: 1985
Tabbed By David Siddons (farmer_siddons@hotmail.com)

Intro:
|-----------------|
|-----------------|
|-----------------|
|-2---2---2---2---|

Verse Riff:                                        Last time ...
|-----------------------|-----------------------| |-----------------------|
|-----------------------|-----------------------| |-----------------------|
|-----------------------|-----------------------| |-----------------------|
|-0-0-0-0-0-0-0-0-2-0-3-|-0-0-0-0-0-0-0-0-3-0-6-| |-0-0-0-0-0-0-0-0-3-0-2-|

Pre-Chorus:
|---------------------------------|
|---------------------------------|
|---------------------------------|
|-3-3-3-3-3-3-3-3-3-3-3-3-3-3-3-3-|

Solo:
|---------------------------|---------------------------------|
|---------------------------|---------------------------------|
|---------------------------|---------------------------------|
|-3-3-3-3-3-3-3-3-3-3-3-3-5-|-7-7-7-7-7-7-7-7-7-7-7-7-7-7-7-7-|

|---------------------------|---------------------------------|
|---------------------------|---------------------------------|
|---------------------------|---------------------------------|
|-7-7-7-7-7-7-7-7-7-7-7-7-5-|-7-7-7-7-7-7-7-7-6-6-6-6-6-6-6-6-|

Riff A:
|------------------------|----------------------|
|----------------6-5---5-|----------------------|
|--------------------6---|--------------4-3---3-|
|-3-3-3-3-3-3-3-3--------|-3-3-3-3-3-3-3----4---|

Bridge Riff:
|------------------|--------|
|------------------|--------|
|------------------|--------|
|-2-------1--1--1--|-0------|

Riff B:
|---------------------------------|-----------------------------|
|---------------------------------|-----------------------------|
|---------------------------------|-----------------------------|
|-0-0-0-0-0-0-0-0-1p0-1p0-0-0-0-0-|-0-0-0-0-0-0-0-0-1p0-1p0-1---|

Riff C:
|---------------------------------|---------------------------------|
|---------------------------------|---------------------------------|
|---------------------------------|---------------------------------|
|-1-1-1-1-1-1-1-1-1-1-1-1-1-1-1-1-|-1-1-1-1-1-1-1-1-1-1-1-1-1-1-1-1-|

Riff D:
|---------------------------------|-------------------------|-----------------|
|---------------------------------|-------------------------|-----------------|
|---------------------------------|-------------------------|-----------------|
|-2-2-2-2-2-2-2-2-2-2-2-2-2-2-2-2-|-2-2-2-2-2-2-2-2-2-3-4---|-0-------1--1--1-|

Hell Awaits Part: Repeat and Fade
|-------------------------|
|-------------------------|
|-------------------------|
|-0-0-0-0-0-0-0-0-0-0-0-0-|
  development and support by
dmitry ivanov