rock
 
|tablatures   |lyrics   |discussion forums   |more tabs @ XGuitar.com

Slayer tabs

Guilty Of Being White guitar tab

SONG: Guilty Of Being White 
ARTIST: Slayer 
ALBUM: Undisputed Attitude 
TABBED BY: David Lichter (lichter@ebox.tninet.se) 
 
 
 
Tune down 1/2 step     
 
This is a very fast song. 
 
Verse: 
    Aaaaahh...   I'm sorry for something i didnīt do... 
Eb|-----------------------------------------------------| 
Bb|-----------------------------------------------------| 
Gb|-----------------------------------------------------| 
Db|------------------7------10--------------------------| 
Ab|--------------5---5--8---8---------------------------| 
Eb|--------------3------6-------------------------------| 
 
 
Chorus:  4x 
               Guilty of being white... 
Eb|-----------------------------------------------------| 
Bb|-----------------------------------------------------| 
Gb|-----------------------------------------------------| 
Db|-----7-7---5-----------------------------------------| 
Ab|-----5-5---3--3--5-5-5-5-5-5-------------------------| 
Eb|--------------1--3-3-3-3-3-3-------------------------| 
 
 
Verse: 
         I'm sorry for something i didnīt do... 
Eb|-----------------------------------------------------| 
Bb|-----------------------------------------------------| 
Gb|-----------------------------------------------------| 
Db|------------------7------10--------------------------| 
Ab|--------------5---5--8---8---------------------------| 
Eb|--------------3------6-------------------------------| 
 
Chorus:  4x 
               Guilty of being white... 
Eb|-----------------------------------------------------| 
Bb|-----------------------------------------------------| 
Gb|-----------------------------------------------------| 
Db|-----7-7---5-----------------------------------------| 
Ab|-----5-5---3--3--5-5-5-5-5-5-------------------------| 
Eb|--------------1--3-3-3-3-3-3-------------------------| 
 
 
             I'm convicted of a racist crime... 
Eb|-----------------------------------------------------| 
Bb|-----------------------------------------------------| 
Gb|-----------------------------------------------------| 
Db|----------------5------------------------------------| 
Ab|----7---2---3---3-5----------------------------------| 
Eb|----5---0---1-----3----------------------------------| 
 
 
Verse: 
         I'm sorry for something i didnīt do... 
Eb|-----------------------------------------------------| 
Bb|-----------------------------------------------------| 
Gb|-----------------------------------------------------| 
Db|------------------7------10--------------------------| 
Ab|--------------5---5--8---8---------------------------| 
Eb|--------------3------6-------------------------------| 
 
Chorus:  4x 
               Guilty of being white... 
Eb|-----------------------------------------------------| 
Bb|-----------------------------------------------------| 
Gb|-----------------------------------------------------| 
Db|-----7-7---5-----------------------------------------| 
Ab|-----5-5---3--3--5-5-5-5-5-5-------------------------| 
Eb|--------------1--3-3-3-3-3-3-------------------------| 
 
 
 
 
Any comments, questions mail me at: lichter@ebox.tninet.se
  development and support by
dmitry ivanov