rock
 
|tablatures   |lyrics   |discussion forums   |more tabs @ XGuitar.com

Slayer tabs

God Send Death guitar tab

SLAYER - GOD SEND DEATH

Tune Down 1 and 1/2 steps                           PLEASE RATE


Gtr. 1
----------------------------------------------------------------------|
----------------------------------------------------------------------|
----------------------------------------------------------------------|
----------------------------------------------------------------------|
-7---7---8---10---7---7---14---13---7---7---8---10---7---15---14------|
-0---0---0---0----0---0---0----0----0---0---0---0----0---0----0-------|

Gtr. 2
-------------------------------------------------------------------|
-------------------------------------------------------------------|
-------------------------------------------------------------------|
-------------------------------------------------------------------|
-5-4--3---2---------------------------------------------5--4--3----|
-3-2--1---0---------------------------------------------3--2--1----|

------------------------------------|
------------------------------------|
------------------------------------|
------------------------------------|
-6---5---3---5---6---10--9---6------|
-4---3---1---3---4---8---7---4------|



-------------------------------------------------------------------------------------------
-------------------------------------------------------------------------------------------
-------------------------------------------------------------------------------------------
-------------------------------------------------------------------------------------------
-2-2---2-2---2-2---2-2---2-2---2-2---2-2---2-2---2-2---2-2---2-2---2-2---2-2---2-2---2-2---
-0-0---0-0---0-0---0-0---0-0---0-0---0-0---0-0---0-0---0-0---0-0---0-0---0-0---0-0---0-0---
 . .   . .   . .   . .   . .   . .   . .   . .   . .   . .   . .   . .   . .   . .


Verse
-----------------------------------------------------------------
-----------------------------------------------------------------
-----------------------------------------------------------------
-----------------------------------------------------------------
-7---7---7---7---8---8---10--10--14--14--14--14--13--13--8---8---
-0---0---0---0---0---0---0---0---0---0---0---0---0---0---0---0---
pm   .   .   .   .   .   .   .   .   .   .   .   .   .   .   .



let ring.................................................
-----------------------------------------------------------------
-----------------------------------------------------------------
-----------------------------------------------------------------
---------9-------------------------------9-------8---------------
-7---------------8-------10------7-----------------------8-------
(0)-----------------------------(0)------------------------------


let ring..................
-----------------------------------------------------------------
-----------------------------------------------------------------
-----------------------------------------------------------------
---------9-------------------------------10------9---------------
-7---------------8-------10------7-----------------------8-------
(0)-----------------------------(0)----------------------6-------



Chorus
------------------------------------
------------------------------------
------------------------------------
-9----9-9---9------9----------------
-7----7-7---7----7---10-9-8-7-------
-0----0-0---0-----------------------

Play Verse Riff 3 Times


let ring.................................................
-----------------------------------------------------------------
-----------------------------------------------------------------
-----------------------------------------------------------------
---------9-------------------------------9-------8---------------
-7---------------8-------10------7-----------------------8-------
(0)-----------------------------(0)------------------------------

let ring..................
-----------------------------------------------------------------
-----------------------------------------------------------------
-----------------------------------------------------------------
---------9-------------------------------10------9---------------
-7---------------8-------10------7-----------------------8-------
(0)-----------------------------(0)----------------------6-------



                 _____________
                 |  7 Times  |        8th Time
------------------------------------|------------|
------------------------------------|------------|
------------------------------------|------------|
-9----9-9---9------9----------------|------------|
-7----7-7---7----7---10-9-8-7-------|5--4--3-----|
-0----0-0---0-----------------------|3--2--1-----|


Play with wah...................................................
-----------------------------------------------------------------|
-----------------------------------------------------------------|
-----------------------------------------------------------------|
-----------------------------------------------------------------|
-5-----------2-----------3-------8----------7----------------5---|
-3-----------0-----------1-------6----------5----------------3---|


Wah off
-----------------------------------------------------------------|
-----------------------------------------------------------------|
-----------------------------------------------------------------|
-----------------------------------------------------------------|  x4
-5---5---5---2---2---2---3---3---8---8---8---7---7---7---7---7---|
-3---3---3---0---0---0---1---1---6---6---6---5---5---5---5---5---|
pm   .   .   .   .   .   .   .   .   .   .   .   .   .   .   .


Play with wah behind above riff un-muted..........
---------------------------------------------------|
---------------------------------------------------|
---------------------------------------------------|
---------------------------------------------------|
-5-----------2-----------3-------8----------7------|
-3-----------0-----------1-------6----------5------|

                                                                  _________________
Behind Solo                                                       |    3 Times    |
-------------------------------------------------------------------------------------|
-------------------------------------------------------------------------------------|
-------------------------------------------------------------------------------------|
-------------------------------------------------------------------------------------|
---------44444444--------33333333--------44444444------------------------------------|
-22222222--------22222222--------22222222--------6666666633333333--2-1-0-1-0-2-0-1---|
                                                                  pm . . . . . . .



let ring.................................................
-----------------------------------------------------------------
-----------------------------------------------------------------
-----------------------------------------------------------------
---------9-------------------------------9-------8---------------
-7---------------8-------10------7-----------------------8-------
(0)-----------------------------(0)------------------------------


let ring..................
--------------------------------------------------|
--------------------------------------------------|
--------------------------------------------------|
---------9----------------------------------------|
-7---------------8-------10---8-8-8-8-8-8-8-------|
(0)---------------------------6-6-6-6-6-6-6-------|


let ring.....................................................
-----------------------------------------------------------------|
-----------------------------------------------------------------|
-----------------------------------------------------------------|
---------9-------------------------------9-------8---------------|
-7---------------8-------10------7-----------------------8-------|
(0)-----------------------------(0)------------------------------|

let ring..................
-----------------------------------------------------------------|
-----------------------------------------------------------------|
-----------------------------------------------------------------|
---------9-------------------------------10------9---------------|
-7---------------8-------10------7-----------------------8-------|
(0)-----------------------------(0)----------------------6-------|



------------------------------------|------------|
------------------------------------|------------|
------------------------------------|------------|
-9----9-9---9------9----------------|------------|
-7----7-7---7----7---10-9-8-7-------|5--4--3-----|
-0----0-0---0-----------------------|3--2--1-----|
  development and support by
dmitry ivanov