rock
 
|tablatures   |lyrics   |discussion forums   |more tabs @ XGuitar.com

Slayer tabs

God Send Death bass tab

Song: God Send Death
Band: Slayer

Tuning:
G
D
A
E

It Sounds Right...

Riff 1
[---------------------------------------------]
[---------------------------------------------]
[---------------------------------------------]
[-1-1-1-0~~~~~----4-3-1-------4-3-1-3-4-8-7-4-]

Riff 2
[----------------------------------------]
[----------------------------------------]
[----------------------------------------]
[-00-00-00-00-00-00-00-00-00-00-00-00-00-]

Riff 3
[-----------------------------------]
[-----------------------------------]
[-----------------------------------]
[-0-0-0-0-0-0-0-0-0-0-0-0-0-0-0-0-0-]

Riff 4
[------------------]
[--------7-8-------]
[------------9-8-5-]
[-0-0-0------------]

Riff 5
[---------------------------------]
[---------------------------------]
[---------------------------------]
[-3-3-3-0-0-0-2-2-6-6-6-6-5-5-5-5-]

Riff 6
[-----------------I------------------------I-----------------]
[-----------------I------------------------I-----------------]
[----4-----3------I------------------------I-----------------]
[-222--222--222-5-I-2222--1111--6666--5555-I-3-2-0-2-0-2-0-2-]

Riff 7
[-------]
[-------]
[-------]
[-4-3-1-]
  development and support by
dmitry ivanov