rock
 
|tablatures   |lyrics   |discussion forums   |more tabs @ XGuitar.com

Slayer tabs

Ghosts Of War guitar tab

GHOSTS OF WAR 
TABBED BY: JASON MCNEIL 
E-MAIL-(k.mcneil@ns.sympatico.ca) 
 
THE DIABOLIC MUSIC PAGE 
(www.geocities.com/Tokyo/Bridge/3975) 
 
NOTE: IF YOU WANT TO PUT THIS TAB ON YOUR PAGE ASK ME FIRST. I JUST WANT TO 
KEEP TRACK OF WHERE IT IS. 
 
THIS SONG KICKS ASS.  IT WAS A LITTLE TRICKY BUT IT WAS WORTH IT.  NEXT UP 
HARDENING OF THE ARTERIES. 
 
Intro/Verse (at first when one of them is doing soloing, the first 3 chords 
are not played.) 
[-------------------------------------------------------------------------- 
[-------------------------------------------------------------------------- 
[-------------------------------------------------------------------------- 
[-------------------------------------------------------------------------- 
[-2-5-8-------------2p0----------3p0---------2p0-----------------------2p0- 
[-0-3-6-0-0-0-0-0-0------0-0-0-0------0-0-0-0-----0-0-0-0-0--0-0-0-0-0----- 
 
----------------------------] 
----------------------------] 
----------------------------] 
----------------------------] 
---------3p0-----------3p2--] 
-0-0-0-0------0-0-0-0-0-----] 
 
 
Verse b                         Verse c 
[----------------------------][------------] 
[----------------------------][------------] 
[----------------------------][------------] 
[----------------------------][------------] 
[------------------------6-5-][----------4-] 
[-333333333-6-5-333333-------][-22222222---] 
 
 
Chorus 
[------------------------------------] 
[------------------------------------] 
[------------------------------------] 
[------------------------------------] 
[-5-5-5--3--8--7---------------------] 
[-3-3-3--1--6--5---00000000000000----] 
                   .............. 
 
Bridge 
[------------------------------------][-------------------------------] 
[------------------------------------][-------------------------------] 
[------------------------------------][--------------------------11-10] 
[-4-6-6--4--76-----4-6-6---4-6---9-8-][4-6-6--4---76----4-6-6-4-7-----] 
[---------------76-------------------][--------------76---------------] 
[------------------------------------][-------------------------------] 
 
This is followed by a very cool solo. 
Riff 1 (Very Cool Rhythm) 
[-------------------------------------] 
[-------------------------------------] 
[-------------------------------------] 
[-------------------------------------] 
[-------------------------------------] 
[-0--00--0-00-0-00-0-00-0--00-0-------] 
  .  ..  . .. . .. . .. .  .. . 
 
 
Riff 2(I deal in pain.....) 
[------------------------------] 
[------------------------------] 
[------------------------------] 
[10--11--9--8------------------] 
[-8---9--7--6------------------] 
[--------------0-00-0-00-0-00-0] 
               . .. . .. . .. . 
 
 
[-------------------------------][------------------------------] 
[-------------------------------][------------------------------] 
[-------------------------------][------------------------------] 
[------32-23--------7-6-5-5-4---][-----32-23-------76---10-10-9-] 
[------------32-----------------][-----------32-----------------] 
[-0-0-----------00--------------][-0-0----------00--------------]
  development and support by
dmitry ivanov