rock
 
|tablatures   |lyrics   |discussion forums   |more tabs @ XGuitar.com

Slayer tabs

Gemini guitar tab

GEMINI 
BY:SLAYER 
FROM:UNDISPUTED ATTITUDE 
TABBED BY:BRANDON GOODE 
 
TUNING 
6-c#	3-E 
5-F#	2-G# 
4-B	1-C# 
 
INTRO 
RHY. FIG. 1-------------| 
    *      ** 
|-------|-------|-------| 
|-------|-------|-------| 
|--4\---|--4\---|-------|REPEAT 
|--2\---|--2\---|-------|4X 
|--2\---|--2\---|--2-3--| 
|--0\---|--0\---|--0-1--| 
*=DROP BAR DOWN 2 1/2 STEPS! 
**=DROP BAR DOWN 1 1/2 STEP! 
 
RHY. FIG. 2------------------------------------------------\ 
|----------|----------|----------|--------------------------| 
|----------|----------|----------|--------------------------| 
|----------|----------|----------|--------------------------|REPEAT 
|----------|----------|----------|--------------------------|2X 
|--5--7-7--|--2--1-1--|--5--7-7--|--2--3-----5--4-----3--2--| 
|--0--0-0--|--0--0-0--|--0--0-0--|--0--1--0--3--2--0--1--0--| 
						   PM	     PM 
 
1ST VERSE 
RHY. FIG. 2A-----------------------------------------------\ 
|----------|----------|----------|--------------------------| 
|----------|----------|----------|--------------------------| 
|----------|----------|----------|--------------------------|REPEAT 
|----------|----------|----------|--------------------------|3X 
|--5--7-7--|--2--1-1--|--5--7-7--|--2--3-----5--4-----3--2--| 
|--0--0-0--|--0--0-0--|--0--0-0--|--0--1--0--3--2--0--1--0--| 
					 PM-------------------------/ 
 
|---------------|-----------------|-----------------| 
|---------------|-----------------|-----------------| 
|---------------|-----------------|-----------------| 
|---------------|-----------------|-----------------| 
|-2-3---5-4---3-|-2-3---5-4---3-2-|-2-3---6-5---5-6-| 
|-0-1-0-3-2-0-1-|-0-1-0-3-2-0-1-0-|-0-1-0-4-3-0-3-4-| 
     PM    PM       PM    PM         PM   PM 
 
CHORUS 
										/\/\ 
|------------------|-----------------|-----------------------------| 
|------------------|-----------------|-----------------------------| 
|------------------|-----------------|-----------------------------| 
|------------------|-----------------|-----------------------------| 
|-2--9-9--10\2-2-2-|-2--7-7-9\-2-2-2-|-2--9-9-10\7-7-9\----3-2-----| 
|-0--7-7--8\-0-0-0-|-0--5-5-7\-0-0-0-|-0--7-7-8\-5-5-7\-0-1----3-2-| 
		PM------/       PM--------/                
 
										/\/\ 
|------------------|-----------------|-----------------------------| 
|------------------|-----------------|-----------------------------| 
|------------------|-----------------|-----------------------------| 
|------------------|-----------------|-----------------------------| 
|-2--9-9--10\2-2-2-|-2--7-7-9\-2-2-2-|-2--9-9-10\7-7-9\----3-2-3-2-| 
|-0--7-7--8\-0-0-0-|-0--5-5-7\-0-0-0-|-0--7-7-8\-5-5-7\-0-1--------| 
		PM------/       PM--------/                
 
RHY. FIG. 2 (2X) 
 
RHY. FIG. 2A (3X) 
 
RHY. FIG 2(2X) 
 
(PALM MUTE ON ALL OPEN 6TH STRING NOTES!!) 
|---------------|-----------------|---------------|-----------------| 
|---------------|-----------------|---------------|-----------------| 
|---------------|-----------------|---------------|-----------------| 
|---------------|-----------------|---------------|-----------------| 
|-2-3---5-4---3-|-2-3---5-4---3-2-|-2-3---6---9-8-|-2-3---5-4---3-2-| 
|-0-1-0-3-2-0-1-|-0-1-0-3-2-0-1-0-|-0-1-0-4-0-7-6-|-0-1-0-3-2-0-1-0-| 
 
 
|---------------|-----------------|---------------| 
|---------------|-----------------|---------------| 
|---------------|-----------------|---------------| 
|---------------|-----------------|---------------| 
|-2-3---5-4---3-|-2-3---5-4---3-2-|-2-3---3-5-5-6-| 
|-0-1-0-3-2-0-1-|-0-1-0-3-2-0-1-0-|-0-1-0-1-3-3-4-| 
 
SOLO!!! 
(I HAVE NO FUCKIN CLUE BUT I AM HALF WAY DONE FIGURING IT OUT!! 
COME BACK HERE FOR MORE LATER!) 
 
I KNOW THE RHYTHM PARTS THOUGH!!: 
RHY. FIG. 1 (3 3/4X) 
 
|---------| 
|---------| 
|---------| 
|---------| 
|-2-3-2-5-| 
|-0-1-0-3-| 
 
RHY. FIG. 3------------------------------------------------------------\ 
|------------------|-----------------|-----------------|---------------| 
|------------------|-----------------|-----------------|---------------| 
|------------------|-----------------|-----------------|---------------| 
|------------------|-----------------|-----------------|---------------| 
|-2-5-5-6--6-2-2-2-|-2-3-3-5-5-2-2-2-|-2-5-5-6-6-3-3-5-|-5-2-3-5-3-5-3-| 
|-0-3-3-4--4-0-0-0-|-0-1-1-3-3-0-0-0-|-0-3-3-4-4-1-1-3-|-3-0-1-3-1-3-1-| 
		PM-------/	     PM-------/               PM-----------/ 
 
RHY. FIG. 3 (1X) 
 
 
RHY. FIG. 4----------------------\ 
|-----------------|---------------| 
|-----------------|---------------| 
|-----------------|---------------| 
|-----------------|---------------| 
|-2-2-2-2-2-2-2-2-|-2-3----5----3-| 
|-0-0-0-0-0-0-0-0-|-0-1-0--3--0-1-| 
PM---------------/ 
 
RHY. FIG. 4 (4 1/2X) 
 
(IM ONLY GONNA SHOW THE 5TH AND 6TH STRING, CUZ THAT IS WHERE ALL THE ACTION IS!) 
 
PALM MUTE ON ALL OPEN 6TH STRING NOTES! 
5|-2-3---5----5-6-|------4-3-2-|-------3-2-1-|------4-3-2-| 
6|-0-1-0-3--0-3-4-|--000-4-3-2-|-00000-3-2-1-|00000-4-3-2-| 
 
5|---3-2-1---2-2-1-|-------4-3-2-|-------3-2-1-|-------4-3-2-| 
6|-0-3-2-1-0-2-2-1-|-00000-4-3-2-|-00000-3-2-1-|-00000-4-3-2-| 
 
5|---3-3-2---3-2-1-|-------4-3-2-|---3-2-1---2-2-1-|-------4-3-2-| 
6|-0-3-3-2-0-3-2-1-|-00000-4-3-2-|-0-3-2-1-0-2-2-1-|-00000-4-3-2-| 
 
5|---3-3-2---3-2-1-|-------4-3-2-|---3-3-2---2-2-1-|-------4-4-3-| 
6|-0-3-3-2-0-3-2-1-|-00000-4-3-2-|-0-3-3-2-0-2-2-1-|-00000-4-4-3-| 
 
5|---3-3-2---2-2-1-|------| 
6|-0-3-3-2-0-2-2-1-|-1-0-0| 
 
OUTRO 
 
 
 
 
 
 
 
 
 
 
 
 
 
 
 
 
 
 
 
 
 
 
 
 
Gemini (SOLO) 
Album: Undisputed attitude 
SLAYER 
 
Tabbed by Rudy Guzman 
 
KING 
                ----------- 
C#:----------------------------------------------------15-17-29-20-22--| 
 
G#:---------------------------------17--16-17-16-17-19-----------------| 
 
 E:-19B--------7B-7-7-7-7-7--7B~~~-------------------------------------| 
 
 B:-17B----------------------------------------------------------------| 
 
F#:--------------------------------------------------------------------| 
 
C#:--------------------------------------------------------------------| 
 
 
 
                                                   ---------------- 
:19H20P19H20P19-22-19-20-19-20-22-19-20-22-19-20-22B-22-22-22-22-22-23B-23B-| 
 
:---------------------------------------------------------------------------| 
 
:---------------------------------------------------------------------------| 
 
:---------------------------------------------------------------------------| 
 
:---------------------------------------------------------------------------| 
 
:---------------------------------------------------------------------------| 
 
 
 
 
:-23P20-23P20-23P20-23P20-23-23-23~~~~----------------------| 
:--------------------------------------------------9--------| 
:-----------------------------------------------9-----9-----| 
:---------------------------------------------8----------8--| 
:-----------------------------------------/7----------------| 
:-----------------------------------------------------------| 
 
 
 
:------------------------------------------------------| 
:--------10--------------------------------------------| 
:-----------10-------------------------------5AH-------| 
:-----9--------9-------------7-------------------6-----| 
:---8--------------------9------8---------8---------7--| 
:-7----------------7~~~------------9---8---------------| 
 
 
 
:------------------------------------------20-19--19~~~--| 
:-----9-----------14----14-------19----19----------------| 
:---7----------12----12-------18----18-------------------| 
:-6--------11--------------------------------------------| 
:--------------------------------------------------------| 
:--------------------------------------------------------| 
 
 
 
HANNEMAN 
:--------------------------------------------------------------------| 
:-12B~~~--(12)--12-13-15-12-13-15-12-13-15---------------------------| 
:-------------------------------------------14-12-14B-12H14P12-11~~~-| 
:--------------------------------------------------------------------| 
:--------------------------------------------------------------------| 
:--------------------------------------------------------------------| 
 
 
 
:----------------------------------------------------| 
:----------------------------------------------------| 
:----------------------------------------------------| 
:-12-12-13-13--10-10-10--9~~~--9---------------------| 
:-10-10-11-11----------------------11--10--11--------| 
:----------------------------------------------10~~~-| 
 
 
 
 
:----14-----------15------------21------------| 
:-------13-----------14------------20-----20B-| 
:----------12-----------13------------19--19B-| 
:-11-----------12------------18---------------| 
:---------------------------------------------| 
:---------------------------------------------| 
 
 
REPEAT INTRO (3X) 
 
WHEW...THAT IS ONE BAD-ASS SONG.  SO, PLEASE E-MAIL ME IF YOU WANT TO REQUEST A SONG OFF OF UNDISPUTED ATTITUDE.  I GOT THEM ALL DONE, BUT, I WILL ONLY TYPE IT IF I GET REQUESTS FOR IT!! 
 
THANK YOU, 
BRANDON (SLAYER213@aol.com)
  development and support by
dmitry ivanov