rock
 
|tablatures   |lyrics   |discussion forums   |more tabs @ XGuitar.com

Slayer tabs

Gemini bass tab

Band: Slayer
Song: Gemini
Album: Undisputed Attitude
Year: 1996
Tabbed By David Siddons (farmer_siddons@hotmail.com)
Tuning: 1 Step Down

Riff 1:
|-------|
|-------|
|-------|
|-0-----|

Riff 2:
|----------|----------|----------|--------------------------|
|----------|----------|----------|--------------------------|
|----------|----------|----------|--------------------------|
|--0--0-0--|--0--0-0--|--0--0-0--|--0--1--0--3--2--0--1--0--|

Riff 3:
|---------------|-----------------|-----------------|
|---------------|-----------------|-----------------|
|---------------|-----------------|-----------------|
|-0-1-0-3-2-0-1-|-0-1-0-3-2-0-1-0-|-0-1-0-4-3-0-3-4-|

Riff 4:
|------------------|-----------------|------------------------------|
|------------------|-----------------|------------------------------|
|------------------|-----------------|----------------------3-2-----|
|-0--7-7--8\\-0-0-0-|-0--5-5-7\\-0-0-0-|-0--7-7-8\\-5-5-7\\-0-1-----3-2-|

|------------------|-----------------|-----------------------------|
|------------------|-----------------|-----------------------------|
|------------------|-----------------|---------------------3-2-3-2-|
|-0--7-7--8\\-0-0-0-|-0--5-5-7\\-0-0-0-|-0--7-7-8\\-5-5-7\\-0-1--------|

Riff 5:
|---------------|-----------------|---------------|-----------------|
|---------------|-----------------|---------------|-----------------|
|---------------|-----------------|---------------|-----------------|
|-0-1-0-3-2-0-1-|-0-1-0-3-2-0-1-0-|-0-1-0-4-0-7-6-|-0-1-0-3-2-0-1-0-|

|---------------|-----------------|---------------|
|---------------|-----------------|---------------|
|---------------|-----------------|---------------|
|-0-1-0-3-2-0-1-|-0-1-0-3-2-0-1-0-|-0-1-0-1-3-3-4-|

Riff 6:
|---------|
|---------|
|---------|
|-0-1-0-3-|

Riff 7:
|------------------|-----------------|-----------------|---------------|
|------------------|-----------------|-----------------|---------------|
|------------------|-----------------|-----------------|---------------|
|-0-3-3-4--4-0-0-0-|-0-1-1-3-3-0-0-0-|-0-3-3-4-4-1-1-3-|-3-0-1-3-1-3-1-|

Riff 8:
|-----------------|---------------|
|-----------------|---------------|
|-----------------|---------------|
|-0-0-0-0-0-0-0-0-|-0-1-0--3--0-1-|

Riff 9:
|----------------|------------|-------------|------------|
|----------------|------------|-------------|------------|
|----------------|------------|-------------|------------|
|-0-1-0-3--0-3-4-|--000-4-3-2-|-00000-3-2-1-|00000-4-3-2-|

|-----------------|-------------|-------------|-------------|
|-----------------|-------------|-------------|-------------|
|-----------------|-------------|-------------|-------------|
|-0-3-2-1-0-2-2-1-|-00000-4-3-2-|-00000-3-2-1-|-00000-4-3-2-|

|-----------------|-------------|-----------------|-------------|
|-----------------|-------------|-----------------|-------------|
|-----------------|-------------|-----------------|-------------|
|-0-3-3-2-0-3-2-1-|-00000-4-3-2-|-0-3-2-1-0-2-2-1-|-00000-4-3-2-|

|-----------------|-------------|-----------------|-------------|
|-----------------|-------------|-----------------|-------------|
|-----------------|-------------|-----------------|-------------|
|-0-3-3-2-0-3-2-1-|-00000-4-3-2-|-0-3-3-2-0-2-2-1-|-00000-4-4-3-|

|-----------------|-------|
|-----------------|-------|
|-----------------|-------|
|-0-3-3-2-0-2-2-1-|-1-0-0-|

Playlist:
Riff 1 x
Riff 2 x5
Riff 3 x
Riff 4 x1
Riff 2 x7
Riff 5 x1
Riff 6 x3 3/4
Riff 7 x1
Riff 8 x4
Riff 9 x1
Riff 1 x3
  development and support by
dmitry ivanov