rock
 
|tablatures   |lyrics   |discussion forums   |more tabs @ XGuitar.com

Slayer tabs

Filler / I Don't Want To Hear It guitar tab

SONG: FILLER/I DONīT WANT TO HEAR IT 
ARTIST: SLAYER 
ALBUM: UNDISPUTED ATTITUDE 
TABBED BY: DAVID LICHTER 
 
 
 
 
This is really two fast songs. 
 
 
Tune down 1/2 step. 
 
 
FILLER 
 
Intro: bass   twice. 
 
 
 
VERSE: 
Eb|--------------------------------------------------------| 
Bb|--------------------------------------------------------| 
Gb|--------------------------------------------------------| 
Db|-11-11-11-11-11-6-6-6-9---------------------------------| 
Ab|-9--9--9--9--9--4-4-4-7-7-7-7---------------------------| 
Eb|------------------------5-5-5---------------------------| 
 
 
 
CHORUS: 2x 
Eb|--------------------------------------------------------| 
Bb|--------------------------------------------------------| 
Gb|--------------------------------------------------------| 
Db|-9--7--2------------------------------------------------| 
Ab|-7--5--0--4---------------------------------------------| 
Eb|----------2---------------------------------------------| 
 
Verse 
 
Chorus 2x 
 
Solo 
 
Verse 4x 
 
Chorus 4x 
 
 
 
 
I DON`T WANT TO HEAR IT 
 
Intro: bass 
 
Verse:    
      I Donīt wanna hear it  All you do is talk about you... 
Eb|--------------------------------------------------------| 
Bb|--------------------------------------------------------| 
Gb|--------------4-4-4-9-9-9-------------------------------| 
Db|--------------2-2-2-7-7-7-------------------------------| 
Ab|-4-4---4-4-4--------------------------------------------| 
Eb|-2-2-0-2-2-2--------------------------------------------| 
 
Chorus:     
       I Donīt wanna hear it  I know you're full of shit...  
Eb|--------------------------------------------------------| 
Bb|--------------------------------------------------------| 
Gb|--------------------------------------------------------| 
Db|--12-12--9----------------------------------------------| 
Ab|--10-10--7-9-12-12-12-12-12-12--------------------------| 
Eb|-----------7-10-10-10-10-10-10--------------------------| 
 
Verse 
 
Chorus 
 
Verse 
 
Chorus 
 
 
 
          Any comments, questions E-mail me at lichter@ebox.tninet.se 
 
 
 
 
 
 
 
 
 
 
 
 
 
 
 
 
 
 
 
 
 
 
 
 
 
 
 
 
filler/i don't want to hear it (solo) 
album: undisputed attitude 
slayer 
 
transcribed by Rudy Guzman 
 
solo 
eb:------------------------------------------1616161717171919171719192121211919171719192121| 
Bb:-----------6-7-9---6-7-9-6-7-9-6-7--9-12------------------------------------------------| 
Gb:7b--------------------------------------------------------------------------------------| 
Db:----6~~~--------------------------------------------------------------------------------| 
Ab:----------------------------------------------------------------------------------------| 
Eb:----------------------------------------------------------------------------------------| 
 
 
 
 
eb:21-19-17------------------------------------------------------------------16b-| 
Bb:---------21-19-17--------------------------------16b--16b~~~--18b--18b~~~-19b-| 
Gb:------------------20-18-17-----------------------18b--18b~~~--20b--20b~~~-----| 
Db:---------------------------19-17-16-------------------------------------------| 
Ab:------------------------------------19-17-19-15\------------------------------| 
Eb:------------------------------------------------------------------------------| 
 
 
 
 
eb:16b~~~-15b-15b~~~-14b--14b~~~-13b-13b~~~-16b-16b~~~--19b--19b~~~--19-22b-22b~~~| 
Bb:19b~~~-18b-18b~~~-17b--17b~~~-16b-16b~~~-19b-19b~~~--22b--22b~~~---------------| 
Gb:-------------------------------------------------------------------------------| 
Db:-------------------------------------------------------------------------------| 
Ab:-------------------------------------------------------------------------------| 
Eb:-------------------------------------------------------------------------------|
  development and support by
dmitry ivanov