rock
 
|tablatures   |lyrics   |discussion forums   |more tabs @ XGuitar.com

Slayer tabs

Filler / I Don't Want To Hear It bass tab

Slayer - Filler / I Don't Want To Hear It
Submitted By: Sqweeky
EMail: Blindside831@aol.com
ALBUM: UNDISPUTED ATTITUDE
TABBED BY: Eduardo Ferreira Pitsch

This is really two fast songs.
Iīve just played guitar for 2 years now, so this might not be so good tabbed.
If you just listen to the album you will learn to play the songs.
Tune down 1/2 step.

FILLER

Intro:
and

VERSE:
Bb|-9--9--9--9--9--4-4-4-6-6------------------------------------|
Eb|--------------------------5-5-5-----------------------------|
CHORUS: 2x
Bb|-7--5--0------------------------------------------------|
Eb|----------2---------------------------------------------|
Verse
Chorus 2x
Solo
Verse 4x
Chorus 4x

I DON`T WANT TO HEAR IT
Intro: bass
Verse:
I Donīt wanna hear it  All you do is talk about you...
Gb|--------------------------------------------------------|
Bb|--------------2-2-2-7-7-7-------------------------------|
Eb|-2-2-0-2-2-2--------------------------------------------|
Chorus:
I Donīt wanna hear it  I know you're full of shit...
Bb|--10-10--7----------------------------------------------|
Eb|-----------7-10-10-10-10-10-10--------------------------|
  development and support by
dmitry ivanov