rock
 
|tablatures   |lyrics   |discussion forums   |more tabs @ XGuitar.com

Slayer tabs

Fight Till Death guitar tab

S L A Y E R 
 
                         FIGHT TILL DEATH 
                       from `Show no mercy` CD 
        tabbed by Grzegorz Musialik  
 
 How about solo ? Maybe next time.... :-) 
 Please send corrections, thanks, flames etc... 
 
 PLAY IN THIS ORDER: 
    rhy.fig.1     4 times 
    rhy.fig.2    10 times 
    rhy.fig.3     2 times 
    rhy.fig.1     4 times 
    rhy.fig.2     8 times 
    rhy.fig.3     2 times 
    rhy.fig.1     4 times 
    rhy.fig.4     4 times 
      backing for solo gtr.: 
      rhy.fig.5     4 times 
      rhy.fig.6     4 times 
      rhy.fig.5     2 times 
      rhy.fig.6     2 times 
      rhy.fig.3     2 times 
    rhy.fig.2     8 times 
    rhy.fig.3     2 times 
    rhy.fig.1     4 times 
    rhy.fig.7     2 times 
 
 
 
  Rhy.Fig.1                                            End Rhy.Fig.1 
e|---------------------------------|--------------------------------| 
B|---------------------------------|--------------------------------| 
G|---------------------------------|----------------0---1-----------| 
D|-----0---1-----------2---3-------|--------1---0---0---1-----------| 
A|-------------0---1-----------2---|3---3-------------------0---1---| 
E|-3-------------------------------|--------------------------------| 
   1   &   2   &   3   &   4   &    1   &   2   &   4   &   4   & 
 
  Rhy.Fig.2                                             End Rhy.Fig.2 
e|---------------------------------|---------------------------------| 
B|---------------------------------|---------------------------------| 
G|---------------------------------|---------------------------------| 
D|---------------------------------|---------------------------------| 
A|---------------------------------|-----------------10------8-------| 
E|-3-3-3-3-3-3-3-3-3-3-3-3-3-3-3-3-|-4-4-4-4-4-4-4-4-8-------6-------| 
   1   &   2   &   3   &   4   &     1   &   2   &   3   &   4   & 
 
  Rhy.Fig.3 
e|--------------------------------|---------------------------------| 
B|--------------------------------|---------------------------------| 
G|--------------------------------|---------------------------------| 
D|-------------------------6------|-----------------6-------5-------| 
A|-------------------------4------|-----------------4-------3-------| 
E|-1-1-1-1-1-1-1-1-1-1-1-1--------|-1-1-1-1-1-1-1-1-----------------| 
   1   &   2   &   3   &   4   &    1   &   2   &   3   &   4   & 
 
                                                       End Rhy.fig.3 
e|--------------------------------|---------------------------------| 
B|--------------------------------|---------------------------------| 
G|--------------------------------|---------------------------------| 
D|-------------------------6------|---------------------------------| 
A|-------------------------4------|-----------------6-------6-------| 
E|-1-1-1-1-1-1-1-1-1-1-1-1--------|-1-1-1-1-1-1-1-1-4-------4-------| 
   1   &   2   &   3   &   4   &    1   &   2   &   3   &   4   & 
 
  Rhy.Fig.4                                             End Rhy.Fig.4 
e|---------------------------------|---------------------------------| 
B|---------------------------------|---------------------------------| 
G|---------------------------------|---------------------------------| 
D|---------------------------------|---------------------------------| 
A|---------------------------------|---------------------------------| 
E|-3-3-3-3-3-3-3-3-3-3-3-3-3-3-3-3-|-6-6-6-6-6-6-6-6-2-2-2-2-2-2-2-2-| 
   1   &   2   &   3   &   4   &     1   &   2   &   3   &   4   & 
 
  Rhy.Fig.5                                             End Rhy.Fig.5 
e|---------------------------------|---------------------------------| 
B|---------------------------------|---------------------------------| 
G|---------------------------------|---------------------------------| 
D|-------------------------4---5---|---------4---5---8-------8-------| 
A|-3-3-3-3-3-3-3-3-3-3-3-3-2---3---|-3-3-3-3-2---3---6-------6-------| 
E|---------------------------------|---------------------------------| 
   1   &   2   &   3   &   4   &     1   &   2   &   3   &   4   & 
 
  Rhy.Fig.6                                             End Rhy.Fig.6 
e|---------------------------------|---------------------------------| 
B|---------------------------------|---------------------------------| 
G|---------------------------------|---------------------------------| 
D|---------------------------------|---------------------------------| 
A|-------------------------4---5---|---------4---5---8-------8-------| 
E|-3-3-3-3-3-3-3-3-3-3-3-3-2---3---|-3-3-3-3-2---3---6-------6-------| 
   1   &   2   &   3   &   4   &     1   &   2   &   3   &   4   & 
 
 
  rhy.fig 7: G5  Bb5  C5  F#5  G5  Bb5  A5 (E5 F5 1st time) 
                                           (F5 G5 2nd time) 
 
 
 
 
 
 
 
 
 
 
 
 
 
 
 
 
 
 
 
 
 
 
 
 
 
 
 
 
 
 
 
 
fight till death (solo) 
album: show no mercy 
slayer 
 
transcribed by Rudy Guzman 
 
 
solo 
e:---------------------------------15h18p15---------------------| 
B:------------------------------------------18-etc--------------| 
G:19-19-19-19-19-19-19-19-19-19etc------------------17b-17-15---| 
D:------------------------------------------------------------17| 
A:--------------------------------------------------------------| 
E:--------------------------------------------------------------| 
 
 
                        ---------------------------------- 
e:-----------------------------------------------------------------------| 
B:---------------------------------------------------------------15-16-18| 
G:15----------------15-17b-17-17-17-17-17-17-17-17-17-17-17--17\---------| 
D:---17-15----15-17------------------------------------------------------| 
A:---------17------------------------------------------------------------| 
E:-----------------------------------------------------------------------| 
 
 
                                                       -play 2  
times-------------- 
e:----------------------------------------------------*---------------------------| 
B:16-15-----------------------------------------------*15-15-15-16-15-15-17-15-15-| 
G:------18-15-16-18-16-15-----------------------------*---------------------------| 
D:------------------------18-15-16-18-16-18----16b-16b*---------------------------| 
A:------------------------------------------18--------*---------------------------| 
E:----------------------------------------------------*---------------------------| 
 
 
--------------------- 
e:-------------------|---------------------------------------------------| 
B:-20-15-15-18-15-15-|---------------------------------------------------| 
G:-------------------|-17b-p-15----------------------15-------15------15\| 
D:-------------------|----------17p15-17p15----17p15----17p15----17p15---| 
A:-------------------|----------------------17---------------------------| 
E:-------------------|---------------------------------------------------| 
 
 
 
e:----------------------------------------------------------------------| 
B:----------------------------------------------------------------------| 
G:----------------------------------------------------------------------| 
D:-910910-10121012-12131213-13151315-15171517-17191719-19201920-22232223| 
A:----------------------------------------------------------------------| 
E:----------------------------------------------------------------------| 
 
 
 
 
e:---------------------------------------------------------------------------------| 
B:------------------------------------------------12b------------------------------| 
G:------------------------------------12-14-12-14-----12-14-15-12-14-15-12-14-15etc| 
D:------------------------12-14-12-14----------------------------------------------| 
A:------------12-14-12-14----------------------------------------------------------| 
E:12-15-12-15----------------------------------------------------------------------| 
 
 
 
              vib.     3 1/2 times 
e:----15b-15b~~~---*12-12-12-13-12-12-15-*------17\--14-15-19--------------| 
B:16\--------------*---------------------*-15\----------------19-14-15-14--| 
G:-----------------*---------------------*---------------------------------| 
D:-----------------*---------------------*---------------------------------| 
A:-----------------*---------------------*---------------------------------| 
E:-----------------*---------------------*---------------------------------| 
 
 
 
       vib. 
e:17\--------------17\--1414141514151417-*-14-15-14-17-14-15-14-17--| 
B:---------------------------------------*--------------------------| 
G:----14b~~~--14\------------------------*--------------------------| 
D:---------------------------------------*--------------------------| 
A:---------------------------------------*--------------------------| 
E:---------------------------------------*--------------------------| 
 
 
 
e:----------------------------------------------------------------| 
B:-17-14-15-14-15-14-17-------------------------------------------| 
G:----------------------17-14-15-14-17-14-17----------------------| 
D:-------------------------------------------17-14-15-14-15-14-17-| 
A:----------------------------------------------------------------| 
E:----------------------------------------------------------------| 
 
 
 
 
e:-----------------------------------------| 
B:-----------------------------------------| 
G:-----------------------------------------| 
D:-----------------------------------------| 
A:-17-14-15-14-15-14-17-(17)-(17)----------| 
E:-----------------------------------------|
  development and support by
dmitry ivanov