rock
 
|tablatures   |lyrics   |discussion forums   |more tabs @ XGuitar.com

Slayer tabs

Fictional Reality guitar tab

Slayer 
Fictional Reality 
Divine Intervention 
Tabbed by Mike Kimball 
 
  
	If it looks f***ed up, try changing the font to something  
non-proportional, such as Courier or Monaco, size 12, with 6" line  
width. 
 
Fig. 1        
|----------------------------------------------------- 
|----------------------------------------------------- 
|----------------------------------------------------- 
|----------------------------------------------------- 
|--------------------2---1-------------------1---0----- 
|--4-0-2-5-2-0-3-0-2---2---4-0-2-5-2-0-3-0-1---1------ 
   |___| |___| |___| |___| |___| |___| |___| |___| 
 
						End Fig. 1 
Play four times. 
 
Fig. 2 
|---------------------------------------------------- 
|---------------------------------------------------- 
|---------------------------------------------------- 
|--------5p4---------------------5p4---------4------- 
|--------5p4---------------------5p4---------4------- 
|--0-0-0-----0-6-0-0-0-0-0-0-0-0-----0-6-0-0---6-4--- 
   |___| |___| |___| |___| |___| |___| |___| |___| 
						End Fig. 2 
 
Play eight times, but on eighth time, play Fig. 3 in place 
of last three notes in Fig. 2 
 
Fig. 3 
|-------------------------------------------------------- 
|-------------------------------------------------------- 
|-------------------------------------------------------- 
|-------------------------------------------------------- 
|--------0-----------0-----------0-----------0-----1----- 
|--2-1-0---4-3-2-1-0---4-3-2-1-0---4-3-2-1-0---4-3---3-2- 
   |___| |___| |___| |___| |___| |___| |___| |___| |___| 
							End Fig. 3 
 
Fig. 4 
|-------------------------------------------------- 
|-------------------------------------------------- 
|-------------------------------------------------- 
|-------------------------------------------------- 
|--------------------------------------3-0-2-0----- 
|--0-0-2-0-0-0-3-0-2-0-0-0-5-0-3-0-0-0---------3-2- 
   |___| |___| |___| |___| |___| |___| |___| |___| 
 
|-------------------------------------------------- 
|-------------------------------------------------- 
|-------------------------------------------------- 
|-------------------------------------------------- 
|--------------------------------------3-2-0------- 
|--0-0-2-0-0-0-3-0-2-0-0-0-5-0-3-0-0-0-------4-3-2- 
   |___| |___| |___| |___| |___| |___| |___| |___| 
 
|-------------------------------------------------- 
|-------------------------------------------------- 
|-------------------------------------------------- 
|-------------------------------------------------- 
|--------------------------------------3-0-2-0----- 
|--0-0-2-0-0-0-3-0-2-0-0-0-5-0-3-0-0-0---------3-2- 
   |___| |___| |___| |___| |___| |___| |___| |___| 
 
 
|-------------------------------------------------- 
|-------------------------------------------------- 
|-------------------------------------------------- 
|-------------------------------------------------- 
|--------------------------------------1-0--------- 
|--0-0-2-0-0-0-3-0-2-0-0-0-5-0-3-0-0-0-----4-3-2-1- 
   |___| |___| |___| |___| |___| |___| |___| |___| 
						End Fig. 4 
 
Return to Fig. 2; but end with Fig. 5. 
Fig. 5 
|-------------------------------------------------------- 
|-------------------------------------------------------- 
|-------------------------------------------------------- 
|-------------------------------------------------------- 
|--------0-----------0-----------0-----------1-0--------- 
|--2-1-0---4-3-2-1-0---4-3-2-1-0---4-3-2-1-0-----4-3-2-1- 
   |___| |___| |___| |___| |___| |___| |___| |___| |___| 
							End Fig. 5 
 
Play Fig. 4 again. 
 
Fig. 6 
|---------------------------------------------- 
|---------------------------------------------- 
|---------------------------------------------- 
|---------------------------------------------- 
|--3-----2-----1-----------3-----2-----1------- 
|----2-1---2-1---2-1-3-2-1---2-1---2-1---2-1-3- 
   |___| |___| |___| |___| |___| |___| |___| | 
					End Fig. 6 
 
Fig. 7 
 
	Fig. 7 is mostly just hammer-ons at the fourth fret of the open E  
string; then on the E string, first fret. 
 
 
	The rest is made up mostly of parts already shown.  Use your ears. 
 
 
 
 
 
 
 
 
 
 
 
 
 
 
 
 
 
 
 
 
 
 
 
 
 
 
FICTIONAL REALITY 
SLAYER 
DIVINE INTERVENTION 
 
TRANSCRIBED BY RUDY GUZMAN 
 
SOLO 1 
      -----------                   BAR 
eb:-----------------------------------------------------17--21B--21B~~~~~| 
Bb:--------------------------------------------17--20B-------------------| 
Gb:-7b--777777777---7~~~~--7AH~~~~--------17B----------------------------| 
Db:----------------------------------------------------------------------| 
Ab:----------------------------------------------------------------------| 
Eb:---------------------------------0------------------------------------| 
 
 
SOLO 2 
             repeat 2 times 
:---|----------------------------------------| 
:---|----------------------------------------| 
:---|----------------------------------------| 
:---|----------------------------------------| 
:---|----------------------------------------| 
:12\|-0h3p0h3p0h3p0h3p0etc--1h4p1h4p1h4p1etc-| 
 
 
 bar                                        bar/\/\/\ 
:---------22b---22b-------------18p15------18b-----------------------------------| 
:--------------------------------------18---------------12/21b\--12/--15b--15p12-| 
:--------------------------------------------------------------------------------| 
:--------------------------------------------------------------------------------| 
:----------------------7/10b\----------------------------------------------------| 
:0-------------------------------------------------------------------------------| 
 
 
                       bar/\/\/\  bar/\/\/\/\         bar                            
bar 
:-----------------------------------------------------------15-18b~~~~~--------22b--22b~~~-| 
:15/17\15/18--15-(15b)--------------------------------------------------17-17\-------------| 
:-----------------------------------------------0/5\---------------------------------------| 
:-----------------------0------------------------------------------------------------------| 
:-----------------------------------0------------------------------------------------------| 
:------------------------------------------------------------------------------------------| 
 
 
 
:-----------------| 
:-----------------| 
:-----------------| 
:19~~~~~\---------| 
:-----------------| 
:-----------------| 
 
 
solo 3 
 
bar/\/\/\/\/\/\/\/\/\/\/\/\/\   bar 
:----------------------------------------------------------------------------------| 
:----------------------------------------------------------------------------------| 
:7p5h7p5h7p5h7p5h7p5etc---------0-----4--6AH--5b--6b--8b--9b--10--11--13--14b~~~~~-| 
:----------------------------------------------------------------------------------| 
:----------------------------------------------------------------------------------| 
:----------------------------------------------------------------------------------| 
 
 
 
 
:------------------------------------------------------------------17-18-20-21b---------| 
:-----------------------------------------------17-18-20--18-19-21----------------------| 
:----------------------------16-17-19--18-19-21-----------------------------------------| 
:-------------------16-17-19------------------------------------------------------------| 
:---------17-19-20----------------------------------------------------------------10\9\-| 
:18-19-21-------------------------------------------------------------------------------|
  development and support by
dmitry ivanov