rock
 
|tablatures   |lyrics   |discussion forums   |more tabs @ XGuitar.com

Slayer tabs

Exile guitar tab

Artist: Slayer
 Title: Exile

 -|--------------------------------|-------------------|---|-----------------|-
 -|--------------------------------|-------------------|---|-----------------|-
 -|--------------------------------|-------------------|---|-----------------|-
 -|--------------------------------|-------------------|-3x|-8---------------|-
 -|--------------------------------|-------------------|---|-8---------------|-
 -|-000-000-000-0-000-0-000-000-000|-000-0-000-000-000-|---|-6---------------|-
   Intro                                                     end

 -|-------------------------|----------------------|-------------------------|-
 -|-------------------------|----------------------|-------------------------|-
 -|-------------------------|----------------------|-------------------------|-
 -|-------------------------|----------------------|-------------------------|-
 -|-8h11p8-8----------------|8h11p8-8--------------|-8h11p8-8----------------|-
 -|----------000-000-0-000-0|---------000-000-0-0--|---------000-000-0-000-0-|-
   Verse  (riff 1)

 -|-------------------------||-----------------|-----------------------------|-
 -|-------------------------||-----------------|-----------------------------|-
 -|-------------------------||-----------------|-----------------------------|-
 -|-------------------------||--4-3---5-4------|-----------------------------|-
 -|-8h11p8-8----------------||--2-1-4-3-2-5----|--------1--0-----------------|-
 -|----------000-000-0-0----||-0----2-----3----|-0-1--3------3--2------------|-
   verse (cont)               Ending 1           Ending 2

 -|--------------------------|--------------------------|---|----------------|-
 -|--------------------------|--------------------------|---|----------------|-
 -|--------------------------|--------------------------|---|----------------|-
 -|--------------------------|--------------------------|-2x|----------------|-
 -|-3-2---------3-----3---3--|-3-2--------3-----3---5---|---|-------1-0------|-
 -|-1-0-000000--1-0-0-1-0-1-0|-1-0-000000-1-0-0-1-0-3-0-|---|-0-1-3-----3-2--|-
   Just to get rid of you

 -|-----------------|-----|-------------------|--------|---------------------|-
 -|-----------------|-----|-------------------|--------|---------------------|-
 -|-----------------|-----|-------------------|-4------|---------------------|-
 -|-----------------|-2---|-------------------|-4------|---------------------|-
 -|---------1-0-----|-2---|---------1--0------|-2------|----------1--0-------|-
 -|-0--1--3-----3-2-|-0---|-0--1--3------3--2-|-2------|-0--1---3------3--2--|-
   My hate is contageous (pre-chorus) 1

 -|----------------------------------------------|---|-----------------------|-
 -|----------------------------------------------|---|-----------------------|-
 -|----------------------------------------------|---|-----------------------|-
 -|----------------------------------------------|-4x|-----------------------|-
 -|----------------------------------------------|---|-----------------------|-
 -|-0-0-0--0-0-0--0-0-0--0--0-0-0--0-0-0-0-0-0---|---|-----------------------|-
   Exile !!!!!  (chorus)

 -|----------------------|----------------------|---------------|-----------|--
 -|----------------------|----------------------|---------------|-----------|--
 -|----------------------|-------------------4--|---------------|-----------|--
 -|---------------------2|-------------------4--|--------------2|-----------|--
 -|---------1--0--------2|--------1-0--------2--|------1-0-----2|-------1-0-|--
 -|-0--1--3------3--2---0|-0-1--3------3--2--2--|-0-1-3----3-2-0|-0-1-3-----|--
    My hate is contageous (pre-chorus) 2

 -|--------|-----------------|-----------------------------------------------|-
 -|--------|-----------------|-----------------------------------------------|-
 -|-----5--|-----------------|-----------------------------------------------|-
 -|-----5--|-----------------|-----------------------------------------------|-
 -|-----3--|--------1--0-----|-----------------------------------------------|-
 -|-3-2-3--|-0-1--3------3--2|-----------------------------------------------|-


 -|------------------------------------------------------|-----|-------------|-
 -|------------------------------------------------------|-----|-------------|-
 -|-12\\--------------------------------------------------|-----|-------------|-
 -|-12\\--------------------------------------------------|-3x--|-------------|-
 -|-10\\--2-2--2-2--2-2--2-2--2-2--2-2----------1--0------|-----|-------------|-
 -|-10\\--0-0--0-0--0-0--0-0--0-0--0-0--0--1--3------3--2-|-----|-------------|-
   Solo riff 1

 -|----------------------|--------------------------------|------------------|-
 -|----------------------|--------------------------------|------------------|-
 -|-12\\------------------|-12\\----------------------------|------------------|-
 -|-12\\--2-2--2-2--2-2-2-|-12\\--2-2--2-2------------------|------------------|-
 -|-10\\--2-2--2-2--2-2-2-|-10\\--2-2--2-2---------1-0------|------------------|-
 -|-10\\--0-0--0-0--0-0-0-|-10\\--0-0--0-0--0-1--3-----3-2--|------------------|-
   Solo riff 1 end

 -|-------------------------------------------------------------------|------|-
 -|-------------------------------------------------------------------|------|-
 -|----------------------------------------------4--------------------|------|-
 -|----------------------------------------------4--------------------|-4x---|-
 -|----------------------------------------------2----------1--0------|------|-
 -|-00000--000--00000--000--000--00000--000-0000-2--0--1--3------3--2-|------|-
   solo riff 2

 -|----------------------------|-----------------|---------------------------|-
 -|----------------------------|-----------------|---------------------------|-
 -|----------------------------|-----------------|---------------------------|-
 -|----------------------------|-----------------|---------------------------|-
 -|----------------------------|-22222--222--22--|---------------------------|-
 -|-00000--000--00000--000--000|-00000--000--00--|---------------------------|-
   solo riff 2 end               with drums (crunch

 -|---------------------------------|------|---------------------------------|-
 -|---------------------------------|------|---------------------------------|-
 -|---------------------------------|------|---------------------------------|-
 -|---------------------------------|-4x---|---------------------------------|-
 -|---------------------------------|------|---------------------------------|-
 -|-0--00--000-0--000--0-0--000--000|------|---------------------------------|-
                                            then play chorus 3x, 4th is drums

 -|----------------------------------|-------------------------|-------------|-
 -|----------------------------------|-------------------------|-------------|-
 -|----------------------------------|-------------------------|-------------|-
 -|----------------------------------|-------------------------|-------------|-
 -|----------------------------------|-------------------------|-------------|-
 -|-000-2/3--000--0000--000--0--000-0|-2/3-00--00--00-3-2-1-1--|-------------|-


 -|------------------|----------------|-----------------|--------------------|-
 -|------------------|----------------|-----------------|--------------------|-
 -|------------------|----------------|-----------------|--------------------|-
 -|------------------|----------------|-----------------|--------------------|-
 -|-----------1-0----|---------1-0----|----------1-0----|---------1-0--------|-
 -|-000-0-1-3-----3-2|-000-1-3-----3-2|-00-0-1-3-----3-2|-0-0-1-3-----3-2----|-


 -|----------------------------------------------------|------|--------------|-
 -|----------------------------------------------------|------|--------------|-
 -|-12\\------------------------------------------------|------|--------------|-
 -|-12\\--2-2--2-2--2-2--2-2--2-2--2-2------------------|-2x---|--------------|-
 -|-10---2-2--2-2--2-2--2-2--2-2--2-2---------1-0------|------|--------------|-
 -|-10\\--0-0--0-0--0-0--0-0--0-0--0-0--0-1--3-----3-2--|------|--------------|-
   End      1

 -|----------------------------------------------------|-------|-------------|-
 -|----------------------------------------------------|-------|-------------|-
 -|-12\\------------------------------------------------|-------|-------------|-
 -|-12\\------------------------------------------------|--1x---|-------------|-
 -|-10\\--2-2--2-2--2-2--2-2--2-2--2-2---------1-0------|-------|-------------|-
 -|-10\\--0-0--0-0--0-0--0-0--0-0--0-0--0-1--3-----3-2--|-------|-------------|-


 -|-----------------------------------------------------|-------|------------|-
 -|-----------------------------------------------------|-------|------------|-
 -|-12\\-------------------------------------------------|-------|------------|-
 -|-12\\--2\\-/2---2\\-/2---2\\-/2--------------------------|--1x---|------------|-
 -|-10\\--2\\\\/2---2\\\\/2---2\\\\/2----------1-0-------------|-------|------------|-
 -|-10\\--0\\\\/0---0\\\\/0---0\\\\/0--0--1--3-----3-2---------|-------|------------|-
           \\       \\       \\

 -|------------------------------------------------------|------|------------|-
 -|------------------------------------------------------|------|------------|-
 -|-12\\--------------------------------------------------|------|------------|-
 -|-12\\--2\\----------------------------------------------|--1x--|------------|-
 -|-10\\--2\\------------------------------1--0------------|------|------------|-
 -|-10\\--0\\----------------------0--1--3------3--2-------|------|------------|-
          depress gradually

 -|---------------------------|----------------------------------------------|-
 -|---------------------------|----------------------------------------------|-
 -|---------------------------|----------------------------------------------|-
 -|---------------------------|----------------------------------------------|-
 -|--------------------2-2----|----------------------------------------------|-
 -|-0000000--0000--000-0-0----|----------------------------------------------|-
  development and support by
dmitry ivanov