rock
 
|tablatures   |lyrics   |discussion forums   |more tabs @ XGuitar.com

Slayer tabs

Evil Has No Boundaries bass tab

Slayer - Show No Mercy
Evil Has No Boundaries

Bass tab by Andre Couto (aka "Andre The Wizard (murder in the rue morgue)")
ICQ # 8949302
07/03/99

note: "*"s are used to represent the same note X times (listen to the song).
% = repeat previous bar

G-----------------------------------|-
D-----------------------------------|-
A--7--7--7--------5-7--7--7------8--|-
E-----------7-5-8------------7-5----|-

G-----------------------------|
D-----------------------------|
A--7*----------5-7*--------8--|
E--------7-5-8---------7-5----|

  "Evil..."
G------------------------------------------
D------------------------------------------
A--2-2-----------------2-2-------5-5--4-4--
E-------0-0--3-3--2-2-------0-0------------

G------------------------------------------|
D------------------------------------------|
A--2-2-----------------2-2-------5-5--7-7--|
E-------0-0--3-3--2-2-------0-0------------|

   1:17
G-----------------------------|---|
D--------------------------5--|---|
A--------7-5-7-8-------7-5----|-%-|
E--7*------------7*-----------|---|

   1:40 solo
G-----------------------|
D-----------------------|
A--0*--------3-2-3-2-3--|
E-----------------------|

   2:00 solo
G---------------------------|
D--2*-----------------------|
A-------3*---5*---3-2-3-2-3-|
E---------------------------|

   2:22
G-----------------------------|---|
D--2--------------------------|---|
A-------3----5----3-2-3-2-3-5-|-%-|
E-----------------------------|---|

G-----------------------------|---|
D--2*-------------------------|---|
A-------3*---5*---3-2-3-2-3-5-|-%-|
E-----------------------------|---|

G-------------------------------------------------------------------||
D--------1-1-----------------------1-1------------------------------||
A--3-3---------------0---1-0-3-3---------------0-----5--------------||
E--------------3-3-----1-----------------1-1-----3-2---0*--------0--||
  development and support by
dmitry ivanov