rock
 
|tablatures   |lyrics   |discussion forums   |more tabs @ XGuitar.com

Slayer tabs

Divine Intervention guitar tab

SONG: Divine Intervention 
ARTIST: Slayer 
ALBUM: Divine Intervention 
Tabbed by David Lichter 
 
 
PM = Palm Mute 
 
 
Tune down 1/2 step to Eb 
 
 
Intro: 
Eb|--------------------------------------------------------------| 
Bb|--------------------------------------------------------------| 
Gb|--------------------------------------------------------------| 
Db|--5-------5-----5-5-5-5-5-5-5-9--8-------8-----8-8-8-8-8-8----| 
Ab|--7-------7-----7-7-7-7-7-7-7-7--7-------7-----7-7-7-7-7-7----| 
Eb|----0-0-0---0-0--------------------0-0-0---0-0----------------| 
 
 
Eb|-------------------------------------------------| 
Bb|-------------------------------------------------| 
Gb|-------------------------------------------------| 
Db|-------------------------------------5-5-5-------| 
Ab|-------------------------------------7-7-7-------| 
Eb|-0-0-0-0-0-0-0-0-0-0-0-0-0-0-0-0-0-0-------------| 
  PM|----------------------------------| 
 
Eb|-------------------------------------------------| 
Bb|-------------------------------------------------| 
Gb|-------------------------------------------------| 
Db|-------------------------------------8-8-8-7-----| 
Ab|-------------------------------------7-7-7-0-----| 
Eb|-0-0-0-0-0-0-0-0-0-0-0-0-0-0-0-0-0-0-------------| 
  PM|----------------------------------| 
 
 
Guitar 1  Fig 1 
Eb|-------------------------------------------------| 
Bb|-------------------------------------------------| 
Gb|-------------------------------------------------| 
Db|--------9-----------9-10-------------------------| 
Ab|-----7-----------7-------------------------------| 
Eb|--0--------0--0----------------------------------| 
 
Guitar 2  Fig 1 
Eb|-------------------------------------------------| 
Bb|-------------------------------------------------| 
Gb|-------------------------------------------------| 
Db|-------------------------------------------------| 
Ab|--2---2-2---2---2-2-2----------------------------| 
Eb|--0---0-0---0---0-0-0----------------------------| 
 
 
 Clean 
Eb|-------------------------------------------------| 
Bb|-------------------------------------------------| 
Gb|-------------------------------------------------| 
Db|---------5-----8--7------------------------------| 
Ab|------7-----6------------------------------------| 
Eb|---0---------------------------------------------| 
 
 
    Awaken in a web like hell... 
Eb|-------------------------------------------------| 
Bb|-------------------------------------------------| 
Gb|-------------------------------------------------| 
Db|-------------------------------------5-5-5-------| 
Ab|-------------------------------------7-7-7-------| 
Eb|-0-0-0-0-0-0-0-0-0-0-0-0-0-0-0-0-0-0-------------| 
  PM|----------------------------------| 
 
    How did I reach this place... 
Eb|-------------------------------------------------| 
Bb|-------------------------------------------------| 
Gb|-------------------------------------------------| 
Db|-------------------------------------8-8-8-7-----| 
Ab|-------------------------------------7-7-7-0-----| 
Eb|-0-0-0-0-0-0-0-0-0-0-0-0-0-0-0-0-0-0-------------| 
  PM|----------------------------------| 
 
 
Solo 
 
 
 
 
 
 
 
 
 
 
 
 
 
 
 
 
 
 
 
 
 
 
 
 
 
 
#----------------------------------PLEASE NOTE--------------------------------# 
#This file is the author's own work and represents their interpretation of the# 
#song. You may only use this file for private study, scholarship, or research.# 
#-----------------------------------------------------------------------------# 
#-- File created with Instab - http://www.pconline.com/~smcarey/instab.html --# 
#-----------------------------------------------------------------------------# 
 
Author/Artist: Slayer 
Title: Divine Intervention 
Album: Divine Intervention 
Transcribed by: Dmitry Solomatnikov 
Email: diamsol@yahoo.com 
 
This is King's second Solo !!! 
Tune down 1/2 step to Eb 
That's realy COOL  !!!  But u should play it very fast ! 
Listen the original !!!!!!!!!!! 
 
  
 
 
--------------------5-5h6p5---5-9-10-9-6-5------------------------------------ 
-------------6-8-8-------------------------8-6-5------------------------------ 
-----6-6-7-9-------------------------------------7-6-3------------------------ 
-7-8---------------------------------------------------7-5-3------------------ 
-------------------------------------------------------------7-5-4------------ 
-------------------------------------------------------------------6-5-3------ 
                                                                               
 
------------------------------------------------------------------------------ 
--------------------------------------------------------------10-------------- 
-------------------------------7------------------7----7-9-10----------------- 
------------------7--------------7b-r-7----7-8-10----------------------------- 
------4-7-5--------------5---------------------------------------------------- 
--5-6-------6-/6------/5------------------------------------------------------ 
                                                                               
 
-10-------------------------------10-------------18-21-18-17-18-21-18-17------ 
----10b-r--10b-r--10-----10-11-13--------/15-17------------------------------- 
------------------------------------------------------------------------------ 
------------------------------------------------------------------------------ 
------------------------------------------------------------------------------ 
------------------------------------------------------------------------------ 
                                                                               
 
-18-21-18-17------------------------------------------------------------------ 
-------------20-18-17--------------------------------------------------------- 
----------------------19-18-15------------------------------------------------ 
-------------------------------19-17-15--------------------------------------- 
----------------------------------------19-17-15------------------------------ 
-------------------------------------------------18-17\-----------------------
  development and support by
dmitry ivanov