rock
 
|tablatures   |lyrics   |discussion forums   |more tabs @ XGuitar.com

Slayer tabs

Dissident Aggressor guitar tab

DISSIDENT AGGRESSOR 
ALBUM: SOUTH OF HEAVEN 
SLAYER 
ORIGINALLY RECORDED BY JUDAS PRIEST 
 
TABBED BY RUDY GUZMAN 
 
  gt1 
eb:-------------------------------------------------------------------| 
Bb:-------------------------------------------------------------------| 
Gb:-------------------------------------------------------------------| 
Db:-9------------------------------------------------pick-slide-------| 
Ab:-7--------------------------------------------x/-------------------| 
Eb:-0--------------------------------------------x/-------------------| 
 
  gt2 
eb:-------------------------------------------------------------------| 
Bb:-------------------------------------------------------------------| 
Gb:-------------------------------------------------------------------| 
Db:-------------------------------------------------------------------| 
Ab:-2-22-22-22-22-22-22-22-22-22-22-22-22-22-22-22-22-22-22-22-22-22--| 
Eb:-0-00-00-00-00-00-00-00-00-00-00-00-00-00-00-00-00-00-00-00-00-00--| 
   pm .. .. .. .. .. .. .. .. .. .. .. .. .. .. .. .. .. .. .. .. .. 
 
                         play 4 times 
eb:------------------------------------| 
Bb:------------------------------------| 
Gb:------------------------------------| 
Db:------------------------------------| 
Ab:-2----------------------------------| 
Eb:-0--0-0-0-3~-0-0-0-4~-0-0-0-4p3-0-5-| 
   pm  . . .    . . .    . . .     . 
 
   verse 
                         play 3 times 
eb:-------------------------------------| 
Bb:-------------------------------------| 
Gb:-------------------------------------| 
Db:-------------------------------------| 
Ab:-2-----------------------------------| 
Eb:-0--0-0-0-3~-0-0-0-4~-0-0-0-4p3-0-5--| 
   pm  . . .    . . .    . . .     . 
 
 
eb:-----------------------------------| 
Bb:-----------------------------------| 
Gb:-----------------------------------| 
Db:-----------------------------------| 
Ab:-2------------------10-9--7p5------| 
Eb:-0--0-0-0-3~-0-0-0------------7----| 
 
gt1                                            play 2 times 
eb:-------------------------------------------------------------------| 
Bb:-------------------------------------------------------------------| 
Gb:-------------------------------------------------------------------| 
Db:---------------------------------------------------------------5---| 
Ab:-2------------------2---------------------2--------------5---5---7-| 
Eb:-0--0-0-0-3~-0-0-0--0--0-0-0-3-4-5-0-0-0--0--0-0-0-5-6-7---7-------| 
 
 
gt2             ----------       ---------    play 2 times 
eb:---------------------------------------------------------| 
Bb:----------15b-15-15-15~-----15b-15-15-15-----------------| 
Gb:---------------------------------------------------------| 
Db:---------------------------------------------------------| 
Ab:---------------------------------------------------------| 
Eb:---------------------------------------------------------| 
 
 
                                       play 3 times 
eb:---------------------------------------------------------| 
Bb:---------------------------------------------------------| 
Gb:---------------------------------------------------------| 
Db:---------------------------------------------------------| 
Ab:-2-------------------------------------------------------| 
Eb:-0--0-0-0-3~-0-0-0-4~-0-0-0-4p3-0-5----------------------| 
   pm  . . .    . . .    . . .     . 
 
 
 
eb:---------------------------------------| 
Bb:---------------------------------------| 
Gb:---------------------------------------| 
Db:---------------------------------------| 
Ab:-2-----------------10-9--7p5-----------| 
Eb:-0--0-0-0-3~-0-0-0-----------7---------| 
 
 
gt1                                                   play 2times 
eb:------------------------------------------------------------------*----------------| 
 
Bb:------------------------------------------------------------------*----------------| 
 
Gb:------------------------------------------------------------------*-------------5--| 
 
Db:---------------------------------------------------------------5--*-------5---5---7| 
 
Ab:2------------------2---------------------2---------------5---5---7*-5-6-7---7------| 
 
Eb:0--0-0-0-3~-0-0-0--0--0-0-0-3-4-5-0-0-0--0--0-0-0--5-6-7---7------*----------------| 
 
 
 
                                              play 2 times 
gt2             ---------        ----------- 
eb:-------------------------------------------------------| 
Bb:----------15b-15-15-15~------15b-15-15-15--------------| 
Gb:-------------------------------------------------------| 
Db:-------------------------------------------------------| 
Ab:-------------------------------------------------------| 
Eb:-------------------------------------------------------| 
 
 
        play this under the solo 
eb:-----------------------------------------------------------* 
Bb:-----------------------------------------------------------* 
Gb:-------------------------------------------------------5---* 
Db:-------------------------------------------------5---5---7-* 
Ab:-3~-0-0-2~-0-0-1~--5-6-7--3~-0-0-2~-0-0-1~-5-6-7---7-------* 
Eb:-----------------------------------------------------------* 
 
 
 
solo            vib/bar    bar-----------                 vib/bar 
eb:-22b-22b-22b-22b-------------------------------------------------| 
Bb:------------------------0h4-0-12-9-7-9-5b-------------18b--------| 
Gb:------------------------------------------------------17b--------| 
Db:-----------------------------------------------------------------| 
Ab:-----------------------------------------------------------------| 
Eb:----------------------------------------------5/17---------------| 
 
 
 
   3 times           bar                  bar 
eb:-20\18-*-18\----21b~~~--------20-19\-----------------18\-----------| 
Bb:-19\17-*-17\------------------------------------------------15b/22-| 
Gb:-------*------------------------------------slowly-----------------| 
Db:-------*------------------------------------3\10/3-----------------| 
Ab:-------*-------------------------------0---------------------------| 
Eb:-------*-----------------5/10--------------------------------------| 
 
 
 
                       bar 
eb:-19ah-b--20\-----21b~~~-------------------------------| 
Bb:------------------------------------------------------| 
Gb:------------------------------------------------------| 
Db:------------------------------------------------------| 
Ab:------------------------------------------------------| 
Eb:------------------------------------------------------| 
 
 
                                   play 2 times 
eb:------------------------------------------------------| 
Bb:------------------------------------------------------| 
Gb:------------------------------------------------------| 
Db:-9-7-9--9-7-9--9-7-9--4-5--12-9-----------------------| 
Ab:-7-5-7--7-5-7--7-5-7--2-3--10-11----------------------| 
Eb:------------------------------------------------------| 
 
 
 
                                     play 3 times 
eb:------------------------------------------------------| 
Bb:------------------------------------------------------| 
Gb:------------------------------------------------------| 
Db:------------------------------------------------------| 
Ab:-2----------------------------------------------------| 
Eb:-0--0-0-0-3~-0-0-0-4~-0-0-0-4p3-0-5-------------------| 
    pm . . .    . . .    . . .     . 
 
 
 
eb:-----------------------------| 
Bb:-----------------------------| 
Gb:-----------------------------| 
Db:-----------------------------| 
Ab:-2-----------10-9--7p5-------| 
Eb:-0--0-0-0-3~-----------7-----| 
   pm  . . . 
 
 
 
gt1                                             play 2 times 
eb:----------------------------------------------------------------| 
Bb:----------------------------------------------------------------| 
Gb:----------------------------------------------------------------| 
Db:-------------------------------------------------------------5--| 
Ab:-2-----------------2--------------------2--------------5---5---7| 
Eb:-0--0-0-0-3~-0-0-0-0-0-0-0-3-4-5-0-0-0--0--0-0-0-5-6-7---7------| 
   pm  . . .    . . .   . . .       . . .     . . . 
 
gt2             ---------         --------- play 2 times 
eb:----------------------------------------------------| 
Bb:----------18b-18-18-18~-----18b-18-18-18------------| 
Gb:----------------------------------------------------| 
Db:----------------------------------------------------| 
Ab:----------------------------------------------------| 
Eb:----------------------------------------------------| 
 
 
gt1 
eb:----------------------------------------------------------| 
Bb:----------------------------------------------------------| 
Gb:-------------5-------------------------------5------------| 
Db:-------5---5---7------------5----------5---5---7---9------| 
Ab:-5-6-7---7------------5---5---7--5-6-7---7---------7------| 
Eb:----------------5-6-7---7---------------------------------| 
 
gt2 
eb:-19b-19b-19b-19b-19b-19b-19b-19b-19b-19b-19b-19b-19b-19b-19b-19b-19b\-| 
 
Bb:-22b-22b-22b-22b-22b-22b-22b-22b-22b-22b-22b-22b-22b-22b-22b-22b-22b\-| 
 
Gb:----------------------------------------------------------------------| 
 
Db:----------------------------------------------------------------------| 
 
Ab:----------------------------------------------------------------------| 
 
Eb:----------------------------------------------------------------------| 
 
i'm not sure if is 17 times to do this on the second guitar
  development and support by
dmitry ivanov