rock
 
|tablatures   |lyrics   |discussion forums   |more tabs @ XGuitar.com

Slayer tabs

Disintegration / Free Money bass tab

Slayer - Disintegration (Free Money)
Submitted By: Sqweeky
EMail: Blindside831@aol.com

UNDISPUTED ATTITUDE.


Riff 1:
A--7--7--7--7--0--0--0--0--|--3--3--3--3--5--5--5--5--|
E--------------------------|--------------------------|

Riff 2:
A--5--5--5--5--5--5--5--5--5--5--5--5--4-----|
E--------------------------------------------|

A--5--5--5--5--5--5--5--5--5--5--5--5--8-----|
E--------------------------------------------|

Riff 3:
D--5------------------|--5------------------|
A------5---7-7-7-7-7--|------5---7-7-7-7-7--|
E---------------------|---------------------|

Riff 4:
A--3---5---3---5---7-7-7-7-7-7-7-5-7-7-7-7-7-7-7--|
E-------------------------------------------------|

Riff 5:
A--0---5---2---2---2--|--0---5---2---2---2--|
E---------------------|---------------------|

A--0---5---2---2---2--|--0---2---0---2--|
E---------------------|-----------------|

Songstructure:
Intro
Riff 1 (6 times)
Riff 2 (2 times)
Riff 1 (6 times)
Riff 2 (2 times)
Bass-riff
Riff 3 (2 times)
Riff 4 (2 times)
Riff 3 (2 times)
Riff 5
Riff 3 (3 times)
Riff 4 (2 times)
Riff 3 (3 1/2 times)
END
  development and support by
dmitry ivanov