rock
 
|tablatures   |lyrics   |discussion forums   |more tabs @ XGuitar.com

Slayer tabs

Disciple guitar tab

SLAYER
Disciple

From: God Hates us all
Transcribed by: Steve Clifford
Date: Nov 18th 2001
contact: infiltraition@hotmail.com

Tune whole guitar down one and a half steps (C#)


PM= Palm mute
ph= Pinch harmonic
^= string bend
*= tremolo pick
/= short slide
//= long slide
~= vibrato
h= hammer on
p= pull-off


  Intro riff
  -------------------|
  -------------------|
  -------------------|
  ---------3-2-------|
  -5-2--5--1-0-2-----|
  -3-0--3------0-----|


  Riff A
  --------------------------------|
  --------------------------------|
  --------------------------------|
  ----------9----------------9----|
  -----------8-7--------------8-7-|
  --000-000-------0--000-000------|
PM  ... ...       .  ... ...



  Riff A Ending
  ---------------------|
  ---------------------|
  ---------------------|
  --9-----8-----7------|
  ----8-7---7-6---6-5--|
  ---------------------|
PM . . . . . . . . .


  Riff B: Play to "drones since the dawn of time"
  -----------------------------------------------------------------------
  -----------------------------------------------------------------------
  -----------------------------------------------------------------------
  -----------------------------------------------------------------------
  -----------------------------------------------------------------------
  --3-3-2-0-3-4-3-0------------------------------------------------------
PM . . . . . . . .


  Riff B ending: "God Hates us all..." Gtr2 plays
  a cugging E5 chord instead of triplet 2nd time.
  -----------------------------------------------------------------------
  -----------------------------------------------------------------------
  -----------------------------------------------------------------------
  -----------------------------------------------------------------------
  -----------------------------------------------------------------------
  --000-000--000-000--000-000--000-000-----------------------------------
PM  ... ...  ... ...  ... ...  ... ...


  Riff C (play x2)
  -----------------------------------------------------------------------
  -----------------------------------------------------------------------
  -----------------------------------------------------------------------
  -----------------------------------------------------------------------
  -----------------------------------------------------------------------
  --00003-0-0-0-0-0---00003-0-0-0-0-0------------------------------------
PM ..... . . . . .   ..... . . . . .


  Solo backing: Riff D
  -----------------------------------------------------------------------
  -----------------------------------------------------------------------
  -----------------------------------------------------------------------
  -----------------------------------------------------------------------
  -----------------------------------------------------------------------
  --h1*-0*-h3*-0**--h1*-0*-h3*-0**---------------------------------------


  Solo: (Jeff I think!) with wah

   ph  ph
  -19^-19^-16161617191716-1414151715141514------------------------------
  ------------------------------------------1714141517171514------------
  -----------------------------------------------------------161416~/---
  ----------------------------------------------------------------------
  ----------------------------------------------------------------------
  ----------------------------------------------------------------------

  -----------------------------------------------------141415171514--------
  ---------------------------------------------141517-------------171514---
  --------------------------14-----1415--141517----------------------------
  --------14----1415--141517---1517----17----------------------------------
  --141517--1517----17-----------------------------------------------------
  -------------------------------------------------------------------------

  -----------------------------------------------------------------------
  -----------------------------------------------------------------------
  --161416~-16~-16~-16/--------------------------------------------------
  -----------------------------------------------------------------------
  -----------------------------------------------------------------------
  ------------------------19//-------------------------------------------
*not strictly accurate, but hell it's Slayer, just do whatever and enjoy
it!!
the pattern is more or less right, but the overall position might be a
little off*


  Riff E                                  Ending Gtr1
  -----------------------------------|------------------------------------
  -----------------------------------|------------------------------------
  -----------------------------------|------------------------------------
  -----------------------------------|------------------------------------
  --------------------------------1*-|------------------------------------
  --3*-0*-3*-0*-3*-2*--3*-0*-3*-0*---|--3*-0*-3*-0*-6---------------------


  Riff E ending Gtr2
  -----------------------
  -----------------------
  -----------------------
  -------------3---------
  --2---2---2--1---------
  --0---0---0------------


  Riff F
  -----------------------------------------------------------------------
  -----------------------------------------------------------------------
  -----------------------------------------------------------------------
  -----------------------------------------------------------------------
  ------------22222222---------------------------------------------------
  --100000000------------------------------------------------------------


  Riff F Ending
  -----------------------------------------------------------------------
  -----------------------------------------------------------------------
  -----------------------------------------------------------------------
  -----------------------------------------------------------------------
  -----------------------------------------------------------------------
  --55555555-44444444-00000000-------------------------------------------


  Riff G "I Never said I wanted to be god's disciple"
  ------------------------|
  ------------------------|
  ------------------------|
  ----------------4-3-----|
  --2--5/4-2-4/5--2-1-----|
  --0--3/2-0-2/3----------|


  Riff H "I hate everyone equally" (same as solo backing!)
  -----------------------------------------------------------------------
  -----------------------------------------------------------------------
  -----------------------------------------------------------------------
  -----------------------------------------------------------------------
  -----------------------------------------------------------------------
  -1p0000-h30000-00000000------------------------------------------------


  Riff I *interlude* 1st time           2nd time

------------------------------------|----------------------------------------

------------------------------------|----------------------------------------

------------------------------------|----------------------------------------

------------------------------------|----------------------------------------

---------1-1-1----------------------|-------1-1-1--0-0-0---------------------

--3-3-3-------2-2-2-2-2-2-2-2-2-2---|-3-3-3---------------2-2-2-2-2-2-2-2-2--
PM all


  Riff I *interlude* Ending
  -----------------------------------------------------------------------
  -----------------------------------------------------------------------
  -----------------------------------------------------------------------
  -----------------------------------------------------------------------

---------1-1-1--0-0-0--1-1-1-----------------------------------------------
  --3-3-3---------------------2-2-2-2---------------------------------------
PM all


  Riff I "I reject this fuckin' race" 1st time
  -----------------------------------------------------------------------
  -----------------------------------------------------------------------
  -----------------------------------------------------------------------
  ---------3-3-3----------------------------------------------------------
  --5-5-5--1-1-1--4-4-4-4-4-4-4-4-4---------------------------------------
  --3-3-3---------2-2-2-2-2-2-2-2-2---------------------------------------


  Riff I 2nd time
  -----------------------------------------------------------------------
  -----------------------------------------------------------------------
  -----------------------------------------------------------------------
  --------3-3-3--2-2-2---------------------------------------------------
  --5-5-5-1-1-1--0-0-0--4-4-4-4-4-4-4-4----------------------------------
  --3-3-3---------------2-2-2-2-2-2-2-2----------------------------------


Riff I 3rd time
  -----------------------------------------------------------------------
  -----------------------------------------------------------------------
  -----------------------------------------------------------------------
  -------3-3-3--2-2-2----------------------------------------------------
  -5-5-5-1-1-1--0-0-0--4-4-4-4-4-4-4-4-----------------------------------
  -3-3-3---------------2-2-2-2-2-2-2-2----------------------------------


Riff I 4th time
  -----------------------------------------------------------------------
  -----------------------------------------------------------------------
  -----------------------------------------------------------------------
  -------3-3-3--2-2-2--3-3-3---------------------------------------------
  -5-5-5-1-1-1--0-0-0--1-1-1--4-4-4-4------------------------------------
  -3-3-3----------------------2-2-2-2------------------------------------


  Riff I Ending
  -----------------------------------------------------------------------
  -----------------------------------------------------------------------
  -----------------------------------------------------------------------
  ---------3-3-3---------------------------------------------------------
  --5-5-5--1-1-1--4-4-4-4-4-4-4-4----------------------------------------
  --3-3-3---------2-2-2-2-2-2-2-2----------------------------------------
PM                  . . . . . . .


ok I've transcribed every riff in the song, just listen to the Cd
for the song's arrangement!
  development and support by
dmitry ivanov