rock
 
|tablatures   |lyrics   |discussion forums   |more tabs @ XGuitar.com

Slayer tabs

Disciple bass tab

Song: Disciple
Band: Slayer
Tabbed by: Gertrude McCrack (kingslug1000@hotmail.com)

I've discovered that my bass was horribly out of tune
for my last attempt, this should be a bit better!

Tune down to Eb

Intro:
|-----------------|
|-----------------|
|-----------------|
|-3-0---3-6---5-0-|


/======x4======\
|---------------||---------|
|---------------||---------|
|---------2-----||-2--1--0-|
|-000-000---1-0-||---------|

Verse:
|-----------------|
|-----------------|
|-----------------|
|-3-0-2-3-5-3-0-2-|

Chorus:
|--------------|
|--------------|
|--------------|
|-000-000------|

After chorus/solo:
|-----------|
|-----------|
|-----------|
|-234000000-|

"Pessimist, terrorist..."
/==========x3==========\
|------------------------||------------------|
|------------------------||------------------|
|------------------------||------------------|
|-0000000000-12-12-12-12-||-5555444411112222-|

"I never said..."
|-----------------------------------|
|-----------------------------------|
|-----------------------------------|
|-0-0--3-3--2-2--0-2--3-3--6-6--2-2-|

"I reject this..."
|-----------------------------||---------------------------------|
|-----------------------------||---------------------------------|
|-----------------------------||---------------------------------|
|-3-3-3-6-6-6-2-2-2-2-2-2-2-2-||-3-3-3-6-6-6-5-5-5-2-2-2-2-2-2-2-|

|---------------------------------||-----------------------------|
|---------------------------------||-----------------------------|
|---------------------------------||-----------------------------|
|-3-3-3-6-6-6-5-5-5-6-6-6-2-2-2-2-||-3-3-3-6-6-6-2-2-2-2-2-2-2-2-|
  development and support by
dmitry ivanov