rock
 
|tablatures   |lyrics   |discussion forums   |more tabs @ XGuitar.com

Slayer tabs

Dead Skin Mask guitar tab

Slayer 
Dead Skin Mask 
Seasons in the Abyss 
Tabbed by Mike Kimball 
 
  
	If it looks f***ed up, try changing the font to something  
non-proportional, such as Courier or Monaco, size 12, with 6" line width. 
 
	You'll probably notice my lack of notation explaining mutes,  
solos, etc.  UYE (that's use your ears). 
 
 
Fig. 1a,        
|----------------------------------------------------- 
|----------------------------------------------------- 
|----------------------------------------------------- 
|----------9---10-----------9---10-----------9---10--- 
|------7----------------8----------------7------------ 
|--0----------------0----------------0---------------- 
   guitar 1 
                     
|----------------------------------------------------- 
|----------------------------------------------------- 
|---------------9~~----------------------------------- 
|------9---10---------------9---10-----------9---10--- 
|--8--------------------7----------------8------------ 
|-------------------0----------------0---------------- 
                    guitar 2 
 
|----------------------------------------------------- 
|----------------------------------------------------- 
|----------------------------------------------------- 
|----------9---10-------9---10---9~~------------------ 
|------7------------8--------------------------------- 
|--0-------------------------------------------------- 
                                 End Fig. 1a 
Play twice. 
 
Fig. 1b  both guitars 
|----------------------------------------------------- 
|----------------------------------------------------- 
|----------------------------------------------------- 
|----------9---10-----------9---10-----------9---10--- 
|------7----------------8----------------7------------ 
|--0----------------0----------------0---------------- 
 
|----------------------------------------------------- 
|----------------------------------------------------- 
|---------------8~~----------------------------------- 
|------9---10---------------9---10-----------9---10--- 
|--8--------------------7----------------8------------ 
|-------------------0----------------0---------------- 
 
|----------------------------------------------------- 
|----------------------------------------------------- 
|--------------------------------7~~------------------ 
|----------9---10-------9---10------------------------ 
|------7------------8--------------------------------- 
|--0-------------------------------------------------- 
                                 End Fig. 1 
Play twice; second time omits last chord. 
  
Lead-in               Fig. 2 
|------------------||--------------------------------- 
|------------------||--------------------------------- 
|------------------||--------------------------------- 
|--7-8-------------||-2-------1---------------2------- 
|--7-8-------------||-2-------1---------------2------- 
|--5-6-----3-1-0-1-||-0---0-0-----0-0-3-1-0-1-----0-0- 
 
|----------------------------------|| 
|----------------------------------|| 
|----------------------------------|| 
|----------3-------7-8-------------|| 
|----------3-------7-8-------------|| 
|--3-1-0-1-----0-0-5-6-----3-1-0-1-|| 
                                 End Fig. 2 
Play four times. 
 
Verses one and two are based on Fig. 2 
 
Chorus one is basically the same as Fig. 1b 
 
Fig. 3  
|------------------------------------------------------ 
|------------------------------------------------------ 
|----------------------7------------------------------- 
|--2---------9---8-------8-----2---------9---8---3---5- 
|--2-------7---------------9---2-------7---------3---5- 
|--0---0-0---------------------0---0-0-----------1---3- 
 
Play four times. 
 
Solo part is like the verses. 
 
Fig. 4   
|------------------------------------------------------ 
|------------------------------------------------------ 
|------------------------------------------------------ 
|--2-------------------0-------2-----------------3---5- 
|--2---------2---1-------1-----2---------2---1---3---5- 
|--0---0-0-0---------------2---0---0-0-0---------1---3- 
 
Play four times. 
 
Fig. 5  
|------------------------------------------------------ 
|------------------------------------------------------ 
|------------------------------------------------------ 
|--2-------1---------------2---------------3-------7-8- 
|--2-------1---------------2---------------3-------7-8- 
|--0---0-0-----0-0-0-0-0-0-----0-0-0-0-0-0-----0-0-5-6- 
 
|-------------- 
|-------------- 
|-------------- 
|-------------- 
|-------------- 
|--3-1-0-1----- 
         End Fig. 5 
 
 
Last chorus is the same as the others--Fig. 1b. 
End on E note, 9th fret of 3rd string. 
 
Maintained by: Mike Kimball. Mail me at mkimball@mac.mlmc.utah.edu  
 
 
 
 
 
 
 
 
 
 
 
 
 
 
 
 
 
 
 
 
 
 
 
 
 
 
 
 
Dead Skin Mask (solo)  
slayer  
album: seasons in the abyss 
Tabbed by Rudy Guzman 
email: guzman_84@hotmail.com 
solo 1 
 
eb:-------------------------------|--------------------------------------| 
Bb:-------------------------------|--------------------------------------| 
Gb:-------------------------------|-------------------11h14p11-12-(12)~~~* 
Db:-------------------11h12h11----|----------11h12h14--------------------| 
Ab:----------10h12h14----------14-|-10h12h14-----------------------------| 
Eb:-10h12h14----------------------|--------------------------------------| 
 
:-------5/-|-/17p16-17p16-13p12-17p16-17p16-13p12-------------------------| 
:----------|--------------------------------------17p15-17p15-13p12-17p15-| 
:(12)\-----|--------------------------------------------------------------| 
:----------|--------------------------------------------------------------| 
:----------|--------------------------------------------------------------| 
:----------|--------------------------------------------------------------| 
 
:-------------------------------------------------------------------------| 
:-17p15-13p12-------------------------------------------------------------| 
:-------------16p14-16p14-13p11-16p14-16p14-13p11-------------------------| 
:-------------------------------------------------15p14-15p14-12p10-------| 
:-------------------------------------------------------------------15p14-| 
:-------------------------------------------------------------------------| 
 
:-----------------|-------12--17-12-------------------------------------| 
:-----------------|----15-----------15----------------------------------| 
:-----------------|-14------------------14b/\/\/\/\/\--(14)--(14)\------| 
:-----------------|-----------------------------------------------------| 
:-15p14-12p10-12b-|--------------------------------------------------X\-| 
:-----------------|-----------------------------------------------------| 
 
:------------------------------------------------------------------------| 
:----------------------------------------------------------------12h13h15| 
:----------------------------------------------------12h14p12h14---------| 
:----------------------------------12h13h14-12h13h14---------------------| 
:9h10h12-9h10h12-12h13h15-12h13h15---------------------------------------| 
:------------------------------------------------------------------------| 
 
solo 2 
:-12h13p12h13p12-----------------------------------*--------------------| 
:----------------15p13p12-13p12p10--12b--12b--12b\-*-/13p9h13p9\6p0h6h9-| 
:--------------------------------------------------*--------------------| 
:--------------------------------------------------*--------------------| 
:--------------------------------------------------*--------------------| 
:--------------------------------------------------*--------------------| 
 
:------------------------------------------------------------------------| 
:-/13p9h13p9\6p0h6h8/12p8h12p8\6p0h3h6/-10p6h10p6\3p0h3h6/--/12-(12)~~~~~| 
:------------------------------------------------------------------------| 
:------------------------------------------------------------------------| 
:------------------------------------------------------------------------| 
:------------------------------------------------------------------------| 
 
:-----------16---19p17p16-19p17p16--18p16p15-17p15p14-16p14p13-15p13p12----| 
:-10--12/17--------------------------------------------------------------x\| 
:--------------------------------------------------------------------------| 
:--------------------------------------------------------------------------| 
:--------------------------------------------------------------------------| 
:--------------------------------------------------------------------------| 
 
solo 3 
:-----------------------------------------------------------------------| 
:-----------------------------------------------------------------------| 
:-----------------------------8h10h12-8h10h12--9h11h13-9h11h13-10h11h13-| 
:---------------7h8h10-7h8h10-------------------------------------------| 
:7h9h10-9h10p12---------------------------------------------------------| 
:-----------------------------------------------------------------------| 
 
------- 
:----------------------------------------------------------------------| 
:-----------------15b------15-18b-------18b--18b/\/\/---18p15-18p15\13-| 
:/15p13h15--17b---17b--17----------------------------------------------| 
:----------------------------------------------------------------------| 
:----------------------------------------------------------------------| 
:----------------------------------------------------------------------| 
 
solo 4 
:-------------------------------------------------|----------------------| 
:15p13-15/\/\/\/\/\/\/\/\/\\/\/\/\/\/(15)\/\/\/\/\|----------------------| 
:-------------------------------------------------|----------------------| 
:-------------------------------------------------|-------------2h4h5----| 
:-------------------------------------------------|-5-----2h3h5-------3h5| 
:-------------------------------------------------|---3h5----------------| 
 
:-----------------------------------------------------------------------| 
:-----------------------------------------------------------------------| 
:-----------------------------------------------------------------------| 
:-2h4h5/7-----4h5h7/9-----6h7h9/10------7h8h10/12-------9h10h12/14------| 
:---------5h7---------7h9----------8h10-----------10h12------------12h14| 
:-----------------------------------------------------------------------| 
 
:------------------------------------------------------------------------| 
:------------------------------------------------------------------------| 
:---------11------8h9h11/12--------9h10h12/13-------10h11h13/14----------| 
:11h12h14----9h11------------10h12------------11h13-------------11h12h14-| 
:------------------------------------------------------------------------| 
:------------------------------------------------------------------------| 
 
:--------------------------------------------------------------| 
:---------------------------------15---------------------------| 
:11h12----11h12h14p12/17p14h16h17----17p16p14h16p14----14--16b-| 
:------14-------------------------------------------17---------| 
:--------------------------------------------------------------| 
:--------------------------------------------------------------| 
 
------------------- 
:-------------------------------------------------------------------| 
:-------------------------------------------------------------------| 
:16b-16---16--16-----16---16----14-(14B)--(14)\--11h12h11--14p12p11-| 
:-------------------------------------------------------------------| 
:-------------------------------------------------------------------| 
:-------------------------------------------------------------------| 
 
:-----------------------------------------------------------------------| 
:-----------------------------------------------------------------------| 
:--------------------14AH/\/\/\/\(14)\----------------------------------| 
:-14p12p11-14p12p11---------------------------------------------12------| 
:------------------------------------------------12----12-14h15----14h15| 
:---------------------------------------12h13h15----15------------------| 
 
:------------------------------------------------------17b-----------| 
:--------------------------------------------19b--19b--19b-----------| 
:----------------------14----14/16-19p17h19--19b--19b----------------| 
:12----/14h15h17p15h17----17-----------------------------------------| 
:---14---------------------------------------------------------------| 
:--------------------------------------------------------------------|
  development and support by
dmitry ivanov