rock
 
|tablatures   |lyrics   |discussion forums   |more tabs @ XGuitar.com

Slayer tabs

Darkness Of Christ bass tab

Song: Darkness of Christ
Band: Slayer
Album: God Hates Us All
Year: 2001
Tabbed By David Siddons (farmer_siddons@hotmail.com)

Riff A:
|----------------|
|----------------|
|----------------|
|-2-3--0-0-0-0-0-|

Riff B:
|--------------------|
|--------------------|
|--------------------|
|-3-2-0-3-0--0-0-0-0-|

Riff C:
|-------------------------|
|-------------------------|
|-------------------------|
|-0-0-0-0-0---6-6-6-6-6-6-|

Riff D:
|--------------|
|--------------|
|--------------|
|--6-6-6-6-6---|

Riff E:
|--------------------|
|--------------------|
|--------------------|
|-2-3--0-0--1-2--0-0-|

Riff F:
|----------------------------------|
|----------------------------------|
|----------------------------------|
|-2--5--4-4---1--4--3-3---0-1-0--4-|
  development and support by
dmitry ivanov