rock
 
|tablatures   |lyrics   |discussion forums   |more tabs @ XGuitar.com

Slayer tabs

Crionics guitar tab

Slayer - Crionics 
from Show no Mercy cd 
 
 
My name is Kiowa Jackson and this thing took me forever to  
to do so you better.  This is definetley one of Slayer's best,  
it's called Crionics and is from Show No Mercy. 
 
Riff 1a 
1------------------------------------------------------------- 
2------------------------------------------------------------- 
3------------------------------------------------------------- 
4-9-9-9-9-9-9--9-9-9-9-9--9-9-9-9-10-12------------------------- 
5-9-9-9-9-9-9--9-9-9-9-9--9-9-9-9-10-12------------------------- 
6-7-7-7-7-7-7--7-7-7-7-7--7-7-7-7-8--10------------------------ 
    xxxxxxx    xxxxxxx    xxxxxxx 
 
Riff 1b 
1------------------------------------------------------------- 
2------------------------------------------------------------- 
3------------------------------------------------------------- 
4-9-9-9-9-9-9--9-9-9-9-9--9-9-9-9-9-3-3----------------------- 
5-9-9-9-9-9-9--9-9-9-9-9--9-9-9-9-9-3-3----------------------- 
6-7-7-7-7-7-7--7-7-7-7-7--7-7-7-7-7-5-5----------------------- 
    xxxxxxx    xxxxxxx    xxxxxxx 
 
    
 
Riff 1c 
1------------------------------------------------------------ 
2------------------------------------------------------------ 
3------------------------------------------------------------ 
4-9-9-9-9-9-9--9-9-9-9-9--7-7-7-7-7-------------------- 
5-9-9-9-9-9-9--9-9-9-9-9--7-7-7-7-7-------------------- 
6-7-7-7-7-7-7--7-7-7-7-7--5-5-5-5-5-------------------- 
    xxxxxxx    xxxxxxx     
 
Play Riff 1a + b 3 times (2 times with only one guitar) 
 
Then Riff 1a + c 1 time 
 
Then again Riffa 1a + b but this time only 2 times 
 
This is then followed by: 
Riff 2 
1------------------------------------------------------------ 
2------------------------------------------------------------ 
3------------------------------------------------------------ 
4-5-5-5-5-5-5--5-5-5-5---7-7-7-7-7--7-7-7-7--------- 
5-5-5-5-5-5-5--5-5-5-5---7-7-7-7-7--7-7-7-7--------- 
6-3-3-3-3-3-3--3-3-3-3---5-5-5-5-5--5-5-5-5--------- 
    xxxxxxx    xxxxxxx     xxxxx    xxxxxxx 
 
And then it's riff 1a, riff 2 and 2 times riff 1a 
 
Then comes this (2 times): 
 
Riff 3 
1----------------------------------------------------------- 
2----------------------------------------------------------- 
3----------------------------------------------------------- 
4-9-7-5-12-------------------------------------------------- 
5-9-7-5-12-------------------------------------------------- 
6-7-5-3-10-------------------------------------------------- 
 
Then Riff 1a + c, 2 times Riff 1a + b 
Then Riff 2, Riff 1a, Riff 2, 2 times Riff 1a 
Then 2 times  Riff 3, Riff 1a plus this: 
 
1----------------------------------------------------------- 
2----------------------------------------------------------- 
3----------------------------------------------------------- 
4-9-9-9-9-9-9--9-9-9-9-9--12-12-12-12-12------------ 
5-9-9-9-9-9-9--9-9-9-9-9--12-12-12-12-12------------ 
6-7-7-7-7-7-7--7-7-7-7-7--10-10-10-10-10------------ 
    xxxxxxx    xxxxxxx     
 
Then 
 
1------------------------------------------------------------ 
2------------------------------------------------------------ 
3------------------------------------------------------------ 
4------------------------------------------------------------ 
5------------------------------------------------------------ 
6-5-9-5-9-5-9-5-9--7-11-7-11-7-11-7-11--------------- 
 
1------------------------------------------------------------ 
2------------------------------------------------------------ 
3------------------------------------------------------------ 
4------------------------------------------------------------ 
5------------------------------------------------------------ 
6-3-7-3-7-3-7-3-7--5-9-5-9-5-9-5-9--------------------- 
 
Play this 4 times: 
1----------------------------------------------------------- 
2----------------------------------------------------------- 
3----------------------------------------------------------- 
4-9-12-9-12-9-12--14-14---------------------------------- 
5-9-12-9-12-9-12--14-14---------------------------------- 
6-7-10-7-10-7-10--12-12---------------------------------- 
Then one guitar plays this: 
1----------------------------------------------------------- 
2----------------------------------------------------------- 
3----------------------------------------------------------- 
4-7-11-7-11-7-11-7-11--9-13-9-13-9-13-9-13--------- 
5----------------------------------------------------------- 
6----------------------------------------------------------- 
 
1----------------------------------------------------------- 
2----------------------------------------------------------- 
3----------------------------------------------------------- 
4-5-9-5-9-5-9-5-9--7-11-7-11-7-11-7-11--------------- 
5----------------------------------------------------------- 
6----------------------------------------------------------- 
 
The other plays this: 
1----------------------------------------------------------- 
2----------------------------------------------------------- 
3----------------------------------------------------------- 
4-10-14-10-14-10-14-10-14--12-16-12-16-12-16-12-16 
5----------------------------------------------------------- 
6----------------------------------------------------------- 
 
1----------------------------------------------------------- 
2----------------------------------------------------------- 
3-12-16-12-16-12-16-12-16------------------------------- 
4--------------------------------14-18-14-18-14-18-14-18 
5----------------------------------------------------------- 
6------------------------------------------------------------ 
 
Then it's Riff 1a + c and then this: 
 
4a 
1----------------------------------------------------------- 
2----------------------------------------------------------- 
3----------------------------------------------------------- 
4-9-9-9-9-9-9--9-9-9--9-7----------------------------------- 
5-9-9-9-9-9-9--9-9-9--9-7----------------------------------- 
6-7-7-7-7--7-7-7-7-7--7-5---------------------------------- 
    x x    x x   x x 
 
4b 
1----------------------------------------------------------- 
2----------------------------------------------------------- 
3----------------------------------------------------------- 
4-5-5-5-5--5-5-5--5-5--5------------------------------------ 
5-5-5-5-5--5-5-5--5-5--5------------------------------------ 
6-3-3-3-3--3-3-3--3-3--3-2---------------------------------- 
    x x    x x    x x  
 
4c 
1----------------------------------------------------------- 
2----------------------------------------------------------- 
3----------------------------------------------------------- 
4-5-5-5-5--5-5-5--5-5--5-7---------------------------------- 
5-5-5-5-5--5-5-5--5-5--5-7---------------------------------- 
6-3-3-3-3--3-3-3--3-3--3-5---------------------------------- 
    x x    x x    x x  
 
Now play Riff 5(=4a two times + b and c one time) two times . 
 
Then one guitar  plays this: 
1----------------------------------------------------------- 
2----------------------------------------------------------- 
3----------------------------------------------------------- 
4-9--7-9--7-5--4-5------------------------------------------ 
5-9--7-9--7-5--4-5------------------------------------------ 
6-7--5-7--5-3--2-3----------------------------------------- 
 
While the other plays like this: 
6 
1----------------------------------------------------------- 
2----------------------------------------------------------- 
3-4-5-4----------------------------------------------------- 
4--------5-4---4-5-4-5-4-------------------------- 
5------------7-----------7-5-4------------------------------ 
6-----------------------------7------------------------------ 
 
 
After this is played together the second guitar continues to  
play Riff 6 while the other playes Riff 5. 
After this is played together a couple of times the solo comes 
in and Riff 5 continues during that. 
Then after the solo Riff 6 is played by both guitars 4 times. 
 
Well that's it for me, but I'll try to get out some other Slayer tunes soon. 
In the mean time you can check out the new awesome Swedish death/black 
metal band called RAPTURE. They've just released their demo and it can  
be yours for only 2 lousy bucks or ten skr (plus postage and packing). 
If your intersted or want to ask anything send e-mail to: 
rapturecult@hotmail.com 
 
 
 
 
 
 
 
 
 
 
 
 
 
 
 
 
 
 
 
 
 
 
 
 
 
 
 
crionics (solo) 
album:show no mercy 
slayer 
 
transcribed by Rudy Guzman 
 
 
solo 
                                                                   N.H. 
e:--------------------------------|------------------------------------| 
B:----7-10-7---7-10-7---7-10-7etc-|------------------------------------| 
G:-/9--------9--------9-----------|-7h9p7-6--------7-6----6-5-----3~~~-| 
D:--------------------------------|---------9-10-9------7-----5--------| 
A:--------------------------------|------------------------------------| 
E:--------------------------------|------------------------------------| 
 
 
 
e:-----------2-3-5-3-2---------------------------------------------------| 
B:-2-3-5-3-2-----------5-2-3-5-----2---12b--14b--15b--17b--19b--19b--19b-| 
G:------------------------------4------14b--16b--17b--19b--21b--21b--21b-| 
D:-----------------------------------------------------------------------| 
A:-----------------------------------------------------------------------| 
E:-----------------------------------------------------------------------| 
 
 
                                                  play 2 times 
e:-----------------------------------------------*-17p14-17p14-------------| 
B:------------7/15b-15b-15b-15\--/19-19b-19b-19b-*-------------17p14-17p14-| 
G:19-22-19-22------------------------------------*-------------------------| 
D:-----------------------------------------------*-------------------------| 
A:-----------------------------------------------*-------------------------| 
E:-----------------------------------------------*-------------------------| 
 
 
 
 
e:17p14-17p14---------------------15p12-14p12-15p12-14p12-15p12-14p12-| 
B:------------17p14-20p17---------------------------------------------| 
G:------------------------19b-19b-------------------------------------| 
D:--------------------------------------------------------------------| 
A:--------------------------------------------------------------------| 
E:--------------------------------------------------------------------| 
 
 
 
e:15p1214p12-15p12-14p12-15p12-14p12-15p12-14p12--141414151515171717191919-| 
B:-------------------------------------------------------------------------| 
G:-------------------------------------------------------------------------| 
D:-------------------------------------------------------------------------| 
A:-------------------------------------------------------------------------| 
E:-------------------------------------------------------------------------| 
 
 
 
                  ----------- 
e:22-22-22-24-24b-24b-24b-24b-24b-24b\------------------| 
B:------------------------------------------------------| 
G:------------------------------------------------------| 
D:------------------------------------------------------| 
A:------------------------------------------------------| 
E:------------------------------------------------------|
  development and support by
dmitry ivanov