rock
 
|tablatures   |lyrics   |discussion forums   |more tabs @ XGuitar.com

Slayer tabs

Criminally Insane Remix bass tab

Title: Criminally Insane (Remix)
Artist: Slayer
Album: Reign In Blood (1986)
Tabbed by: Paul Hutchinson
E-mail: sk8r_guy420@hotmail.com

/-slide to #
*-hold note


Gb|----------------------------------|
Db|----------------------------------|
Ab|---4-4-4-5----6---5---4-----------|
Eb|-3--3-3---------3---2---1---001012|

Gb|--------------------------------|
Db|--------------------------------|
Ab|-5/4-5/4-5/4-5/4-/7-------------|
Eb|--------------------------------|

Gb|------------------------------------|
Db|------------------------------------|
Ab|-5-5-5-5-5-3------6---5---4---------|
Eb|-------------6-5----3---2---1-001012|

Gb|--------------------------------|
Db|--------------------------------|
Ab|---4-4-4-5*---------------------|
Eb|-3--3-3-------------------------|

END
  development and support by
dmitry ivanov