rock
 
|tablatures   |lyrics   |discussion forums   |more tabs @ XGuitar.com

Slayer tabs

Criminally Insane bass tab

Band: Slayer
Song: Criminally Insane
Album: Reign in Blood
Year: 1986
Tabbed By David Siddons (farmer_siddons@hotmail.com)

Riff 1: x2
Gb|-----------------------------------------------|
Db|-----------------------------------------------|
Ab|-------------5-----------------------5---------|
Eb|-2--2--2--2-----2--2--2---2--2--2--2---2--2--2-|

Riff 2:
Gb|------------------------------------------------|
Db|------------------------------------------------|
Ab|-------------6------------------------6---------|
Eb|-3--3--3--3-----3--3--3---3--3--3--3----3--3--3-|

Riff 1: x1
Riff 2: x1
Riff 1: x2

Riff 3: x3
Gb|---------------------------------------------------|
Db|---------------------------------------------------|
Ab|---------------------------------------------------|
Eb|-0--0--0--0---1--0--0--0---1--3--0--0---3--4--0--0-|

Riff 4:
Gb|------------------------------------------------------|
Db|------------------------------------------------------|
Ab|------------------------------------------------------|
Eb|-0--0--0--0---1--0--0--0---1--3---------3--4----------|

Riff 5: x5
Gb|-----------------------------------|---------------------------------|
Db|-----------------------------------|---------------------------------|
Ab|-----------------------------------|---------------------------------|
Eb|-0--0-0--0-0-0-0--1--0-0--0-0-0-0--|-1---3---0-0-0-0--3--4--0-0-0-0--|

Riff 6: x4
Gb|------------------------------------|------------------------------------|
Db|------------------------------------|------------------------------------|
Ab|------------------------------------|------------------------------------|
Eb|-1-1-1-1--1-1-1-1--1-1-1-1--2-2-2-2-|-2-2-2-2--4-4-4-4--5-5-5-5--0-0-0-0-|
							    ^ ^ ^ ^ [Don't Play 4th time Round]
Gb|-------------------------------|-----------------------------|
Db|-------------------------------|-----------------------------|
Ab|-------------------------------|-----------------------------|
Eb|-0-----------------------------|----0--3---------3-4---------|

Riff 5: x4 - last time without last beat

Gb|--------------------------------|
Db|--------------------------------|
Ab|--------------------------------|
Eb|-0--1--3--3---------3-----------|

Riff 7: x6
Gb|-------------------------------------|----------------------------------|
Db|-------------------------------------|----------------------------------|
Ab|-------------------------------------|----------------------------------|
Eb|-1-1-1-1--1-1-1-1--0-0-0-0--0-0-0-0--|-1--3---0-0-0-0---3--4---0-0-0-0--|

Riff 6: x4

Gb|-------------------------------------|
Db|-------------------------------------|
Ab|-------------------------------------|
Eb|-0-----------------------------------|

Riff 8: x8
Gb|----------------------------------|
Db|----------------------------------|
Ab|------------------2-1-------2-1---|
Eb|--0-3-2-0-3-2-0-3-----2-0-3-----2-|

Riff 3: x4
Riff 4: x1
Riff 5: x3

Gb|---------------------------------|--------------------------------|
Db|---------------------------------|--------------------------------|
Ab|---------------------------------|--------------------------------|
Eb|-0--0-0--0-0-0-0-1--0-0--0-0-0-0-|-1---3-----------3--4-----------|
  development and support by
dmitry ivanov