rock
 
|tablatures   |lyrics   |discussion forums   |more tabs @ XGuitar.com

Slayer tabs

Can't Stand You guitar tab

SLAYER 
 
*************** 
"Can`t Stand You" 
*************** 
(From the album "Undisputed Attitude") 
*************** 
 
************************************************ 
Tabbed by David Lichter (lichter@ebox.tninet.se) 
************************************************ 
 
 
Tune down 1/2 step! 
 
 
 
  Can`t stand the way... 
Eb|---------------------| 
Bb|---------------------| 
Gb|---------------------| 
Db|---------------------| 
Ab|--2---4--5--4--------| 
Eb|---------------------| 
 
   
    Do I think you`re dick yeah... 
Eb|-------------------------------| 
Bb|-------------------------------| 
Gb|-------------------------------| 
Db|-------------------------------| 
Ab|--33333--44444----77777--66666-| 
Eb|-------------------------------| 
 
 
  Can`t stand the way... 
Eb|---------------------| 
Bb|---------------------| 
Gb|---------------------| 
Db|---------------------| 
Ab|--2---4--5--4--------| 
Eb|---------------------| 
 
 
    Do I think you`re shit yeah... 
Eb|----------------||---------------| 
Bb|----------------||---------------| 
Gb|----------------||---------------| 
Db|----------------||---------------| 
Ab|--33333--44444--||--77777--66666-| 
Eb|----------------||---------------| 
 
  I open my mouth after a while... 
Eb|-------------| |------------------| 
Bb|-------------| |------------------| 
Gb|-------------| |------------------| 
Db|-------------| |------------------| 
Ab|--7---10--9--| |--7---10--9--7--8-| 
Eb|--5---8---7--| |--5---8---7--5--6-| 
 
 
 Can`t stand the way... 
Eb|---------------------| 
Bb|---------------------| 
Gb|---------------------| 
Db|---------------------| 
Ab|--2---4--5--4--------| 
Eb|---------------------| 
 
   
    Do I think you`re sick yeah... 
Eb|-------------------------------| 
Bb|-------------------------------| 
Gb|-------------------------------| 
Db|-------------------------------| 
Ab|--33333--44444----77777--66666-| 
Eb|-------------------------------| 
 
 
 
Any comments, questions mail me: lichter@ebox.tninet.se 
 
 
 
 
 
 
 
 
 
 
 
 
 
 
 
 
 
 
 
 
 
 
 
 
 
 
 
 
Can`t Stand You - Slayer 
 
Undisputed Attitude 
 
Tune to Eb (1/2 a step down) Structure: (Fig. 1) x 4 
(Fig. 2) x 2 
. = palm mute (Fig. 1) x 4 
(Fig. 2) x 2 
(Fig. 1) Play this damn fast! Bass Part 
(Fig. 3) x 3 
Can`t stand the way... (Fig. 4) x 1 
Eb|---------------------------------| (Fig. 3) x 1 
Bb|---------------------------------| (Fig. 4) x 1 
Gb|---------------------------------| (Fig. 3) x 2 
Db|-----------------7-7-7-7-6-6-6-6-| (Fig. 1) x 4 
Ab|-8-8-8-8-9-9-9-9-5-5-5-5-4-4-4-4-| (Fig. 2) x 2 
Eb|-6-6-6-6-7-7-7-7-----------------| 
 
(Fig. 2) 
 
Do I think you're a dick yeah... 
Eb|-----------------------------------------------------------------| 
Bb|-----------------------------------------------------------------| 
Gb|-----------------------------------------------------------------| 
Db|-5-5-5-5-6-6-6-6-5-5-5-5-6-6-6-6-5-5-5-5-6-6-6-6-9-9-9-9-8-8-8-8-| 
Ab|-3-3-3-3-4-4-4-4-3-3-3-3-4-4-4-4-3-3-3-3-4-4-4-4-7-7-7-7-6-6-6-6-| 
Eb|-----------------------------------------------------------------| 
 
Bass Part 
 
Gb|-------------------------------------------------------------| 
Db|-------------------------------------------------------------| 
Ab|-------------------------------------------------------------| 
Eb|-5-5-5-8-8-8-8-5-5-5-5-8-8-7-7-5-5-5-5-8-8-8-8-5-5-5-5-5-6-6-| 
 
(Fig. 3) 
 
I open my mouth after a time... 
Eb|--------------------------------------------------------------------| 
Bb|--------------------------------------------------------------------| 
Gb|--------------------------------------------------------------------| 
Db|--------------------------------------------------------------------| 
Ab|--7-7-7-10-10-10-10-7-7-7-7-10-10-9-9-7-7-7-10-10-10-10-7-7-7-7-8-8-| 
Eb|--5-5-5-8--8--8--8--5-5-5-5-8--8--7-7-5-5-5-8--8--8--8--5-5-5-5-6-6-| 
 
(Fig.4) 
 
She'll never notice that... 
Eb|-----------------------------| 
Bb|-----------------------------| 
Gb|-----------------------------| 
Db|-----------------------------| 
Ab|-3-3-3-3-3-3-4-4-4-4-6-6-6-6-| 
Eb|-1-1-1-1-1-1-2-2-2-2-4-4-4-4-| 
. . . . . . 
 
By Max
  development and support by
dmitry ivanov