rock
 
|tablatures   |lyrics   |discussion forums   |more tabs @ XGuitar.com

Slayer tabs

Born Of Fire guitar tab

Born on Fire 
By Slayer 
Tabbed by Gabriel Hidalgo 
 
Intro (and chorus also) 
|--------------------------------------------------------------------------| 
|--------------------------------------------------------------------------| 
|--------------------------------------------------------------------------| 
|-------------------------2------5-----------------------------------------| 
|---*---4--------3--------0------3-----------------------------------------| 
|--5323-2-225323-1-225323---5323-------------------------------------------| 
PM ....   ......   ......   ....                                  
*Note: This little riff (5323) is play very fast, like triplet. 
 
 
Verse 
|--------------------------------------------------------------------------| 
|--------------------------------------------------------------------------| 
|--------------------------------------------------------------------------| 
|--------------------------------------------------------------------------| 
|------------------------------------------5-------8-----------------------| 
|-0-2-3-22222--0-2-5-2222-0-2-3-22222-0-2--3--0-2--6-----------------------| 
Pm. . . .....  . . . .... . . . ..... . .     . . 
(from now on i won't indicate the Pm's) 
 
Pre chorus 
|--------------------------------------------------------------------------| 
|--------------------------------------------------------------------------| 
|--------------------------------------------------------------------------| 
|--------------------------------------------------------------------------| 
|--5-------------8-8-8-4---------------------------------------------------| 
|--3-333-333-333-6-6-6-2-222-222-222---------------------------------------| 
 
For solo rythm play verse and pre chorus then intro 
 
Interlude 
|--------------------------------------------------------------------------| 
|--------------------------------------------------------------------------| 
|--------------------------------------------------------------------------| 
|--------------------------------------------------------------------------| 
|-------6/5-----5/4-----------4/3------------------------------------------| 
|-0-0-0-4/3-0-0-3/2-0-0-0-0-0-2/1------------------------------------------| 
 
|--------------------------------------------------------------------------| 
|--------------------------------------------------------------------------| 
|--------------------------------------------------------------------------| 
|--------------------------------------------------------------------------| 
|--------------------10-9--------------------------------------------------| 
|-0-2--7-0-0-6-0-0-9-------------------------------------------------------| 
 
For 2nd solo rythm play interlude 
You can figure out what comes next. 
Chao 
 
 
 
 
 
 
 
 
 
 
 
 
 
 
 
 
Born on Fire (solo) 
slayer 
album: seasons in the abyss 
tabbed by Rudy Guzman 
 
solo1 
eb:------------------------------------------------------------------------| 
Bb:------------------------------------------------------------------------| 
Gb:-------19-20b-----------------------------------------------------12-14b| 
Db:-18-20---------20--18----19b-------------------------12-14-12-12--------| 
Ab:----------------------21-----------------12-14-12-14--------------------| 
Eb:-----------------------------12-15-12-15--------------------------------| 
 
bar 
:------------------------------------------------------------------------| 
:------------------------------------------------------------------------| 
:---------------------------------------------2AH-3AH---0----------------| 
:-----------------------------------12----14-----------------------------| 
:--------------------12-13-15-12-14----14--------------------------------| 
:-9-10-12---12-13-15-----------------------------------------------------| 
 
:----------------------------------------| 
:-16b-17b---------------16b--17b---------| 
:-----------17--15vib-------------17--15-| 
:----------------------------------------| 
:----------------------------------------| 
:----------------------------------------| 
 
solo 2 
:------------------|-repeat-|repeat|repeat|repeat|repeat|repeat|repeat-| 
:------------------|-t------|t-----|t-----|t-----|-t----|-t----|-t-----| 
:-7b-vib----7/17\7-|-5p3----|6p4---|7p6---|9p7---|12p10-|14p12-|15p13--| 
:------------------|--------|------|------|------|------|------|-------| 
:------------------|--------|------|------|------|------|------|-------| 
:------------------|--------|------|------|------|------|------|-------| 
 
:repeat|-----------------------------------------------------------| 
:--t---|--t------t------t------t------t------21b--21b--21b--21b/\--| 
:-16p14|-17p15--18p16--19p17--20p18--21p19---21b--21b--21b--21b/\--| 
:------|-----------------------------------------------------------| 
:------|-----------------------------------------------------------| 
:------|-----------------------------------------------------------| 
 
:------------------------------------------------------------------------| 
:------------------7/12---14b------15b------------------------------14-15| 
:------------7/12---------14b--14--15b-15-15-15vib---------14-15-17------| 
:------7/12----------------------------------------14-15-17--------------| 
:7/12--------------------------------------------------------------------| 
:------------------------------------------------------------------------| 
 
:---14-17b-vib-----------| 
:17----------------------| 
:------------------------| 
:------------------------| 
:------------------------| 
:------------------------| 
 
solo 3 
:22b---22b--22~~~~~-|18-19-21-------|---------18vib-| 
:-------------------|---------21-19-|---------------| 
:-------------------|---------------|---------------| 
:-------------------|---------------|---------------| 
:-------------------|-3-times-------|-----17\-------| 
:-------------------|---------------|-15--15\-------| 
 
:------------------------------------------------18Bslowly~~~~~~~-| 
:-----------------------------------------------------------------| 
:-14-16-17-14-----------------------------------------------------| 
:-------------17-16-14--------------------------------------------| 
:----------------------17-16-14-----------------------------------| 
:-------------------------------17-15-17-15-17\-------------------| 
 
:--------------|--------|3-times|3-times|3-times|15p12--| 
:-/2-/4-/7-/14-|--------|-------|--t----|17p15--|-t-----| 
:--------------|-t------|--t----|-16p14-|-t-----|-------| 
:--------------|17p12/14|-17p14-|-------|-------|-------| 
:--------------|--------|-------|-------|-------|-------| 
:--------------|--------|-------|-------|-------|3-times| 
 
t t t t t t t t 
:21p19-20p18--19p17-18p16--17p15--16p14-15p13-14p12----------------------| 
:------------------------------------------------------------------------| 
:------------------------------------------------------------------------| 
:------------------------------------------------------------------------| 
:------------------------------------------------------X\----------------| 
:------------------------------------------------------X\--pick-slide----|
  development and support by
dmitry ivanov