rock
 
|tablatures   |lyrics   |discussion forums   |more tabs @ XGuitar.com

Slayer tabs

Bloodline guitar tab

From: Cameron Hustis 
Artist:	Slaye
Album:	God Hate Us all
Song:	Bloodline
URL:	http://hometown.aol.com/wavejet/myhomepage/index.html

Legend-   PM.-palm mute
          |-rest

Riff 1
D#-----------------------------------------------------
A#---------------------------------------------
F#-----------------------------------------------------
C#-----------------------------------------------------
G#--2--2-2--2-1--1-0--0--------------------------------
C#--0--0-3--3-2--2-1--1--------------------------------

Riff 2
D#-----------------------------------------------------
A#---------------------------------------------
F#-----------------------------------------------------
C#---------------------|-------------------------------
G#--2--2-2--2-1--2-2-5-|------------------------------
C#--0--0-3--3-2--0-2-3-|------------------------------

Riff 3 -play this riff with slow alternate picking.
D#-----------------------------------------------------
A#---------------------------------------------
F#-----------------------------------------------------
C#-----------------------------------------------------
G#-----------------------------------------------------
C#--0-0-0--0--0--0-0-0--0-0-0--------------------------
PM. . . .  .  .  . . .  . . .

Riff 4
D#-----------------------------------------------------
A#-----------------------------------------------------
F#-----------------------------------------------------
C#-----------------------------------------------------
G#------------0-2-3-0-5--------------------------------
C#--0-0-0--0--0-2-3-0-5--------------------------------
PM. . . .  .

Riff 5 -bridge
D#-----------------------
A#-----play-2-times------
F#-----------------------
C#-----------------------
G#-----------------------
C#--3-3-5-4-3-4-7-6-5----
PM. . . .  . . . . . .    . . .  . . . .

Riff 6 -2nd bridge, f
D#-----------------------------------------------------
A#---------------------------------------------
F#-----------------------------------------------------
C#-----------------------------------------------------
G#--3-3-5-4-3-4-7-6-5---------------------------------
C#--3-3-5-4-3-4-7-6-5---------------------------------


During solo (riff 7) an end riff
D#-----------------------------------------------------
A#---------------------------------------------
F#-----------------------------------------------------
C#-----------------------------------------------------
G#--5-4-3-4-5-7-6----------------------------------
C#--5-4-3-4-5-7-6----------------------------------


riff 8
D#-----------------------------------------------------
A#---------------------------------------------
F#-----------------------------------------------------
C#-----------------------------------------------------
G#-----------------------------------------------------
C#--0-0-0--0--0--0-0-0--0-0-0--------------------------
PM. . . .  .  .  . . .  . . .



riff1 x3
riff2 x5
riff3 x5
riff4 x1
riff3 x3
riff4 x1
riff3 x3
riff4 x1
riff3 x3
riff4 x1
riff1 x1
riff2 x1
riff1 x1
riff2 x1
riff3 x1
riff4 x1
riff3 x1
riff4 x1
riff3 x1
riff4 x1
riff3 x1
riff4 x1
riff1 x1
riff2 x1
riff1 x1
riff2 x1
riff5 x1
riff6 x16
riff7 x1
riff1 x1
riff2 x1
riff1 x1
riff2 x1
riff1 x1
riff2 x1
riff1 x1
riff2 x1
riff1 x1
riff2 x1
riff1 x1
riff2 x1(do not play the very last chord in this riff)
riff6 x8



  development and support by
dmitry ivanov