rock
 
|tablatures   |lyrics   |discussion forums   |more tabs @ XGuitar.com

Slayer tabs

Black Magic guitar tab

"Black Magic" 
(Lyrics - King; Music - Hanneman, King) 
 
Fade in picking some E 
 
|-------------------------------------------------------------------------| 
|-------------------------------------------------------------------------| 
|-------------------------------------------------------------------------| 
|--------------------------------------X4---------------------------------| 
|-------7~------7-8---7-8-10-8-5-8-7--------------------------------------| 
|--0000----0000-----0-----------------------------------------------------| 
PM ....    ....     . 
 
|-------------------------------------------------------------------------| 
|-------------------------------------------------------------------------| 
|-------------------------------------------------------------------------| 
|-------9-----9/10-------9------5/7----X---------------------------------| 
|-------7-----7/8--------7------3/5---------------------------------------| 
|--0000---0000------0000---0000-------------------------------------------| 
PM ....   ....      ....   .... 
 
Verse  
|-------------------------------------------------------------------------| 
|-------------------------------------------------------------------------| 
|-------------------------------------------------------------------------| 
|--9------9-9-10-9-------12-11-10-9------9-9-10-9-------------------------| 
|--7------7-7-8--7-------10-9--8--7------7-7-8--7--------5-4-3-2----------| 
|----0000----------0000-------------0000-----------0000--3-2-1-0----------| 
PM   ....          ....             ....           .... 
 
  "spells surround me day and night striken by the force of.... 
|-------------------------------------------------------------------------| 
|-------------------------------------------------------------------------| 
|-------------------------------------------------------------------------| 
|-------------------------------------------------------------------------| 
|--4444-6666---1111--22222-----------------------------------------------------------------| 
|-------------------------------------------------------------------------| 
slight PM all over 
 
"fighting the curse...(see lyrics at end of tab) 
|-------------------------------------------------------------------------| 
|--------11-11--8---------------------------------------------------------| 
|--------9--9---7----X4---------------------------------------------------| 
|--------7--7---5---------------------------------------------------------| 
|-7777--------------------------------------------------------------------| 
|-------------------------------------------------------------------------| 
PM.... 
 
verse after first solo 
|-------------------------------------------------------------------------| 
|-------------------------------------------------------------------------| 
|-------------------------------------------------------------------------| 
|-------------------9-10-------------------9/10-10------------------------| 
|-------------------7-8--------------------7/8--8-------------------------| 
|-0-000-0-000-0-000------0-000-0-000-0-000--------------------------------| 
PM. ...   ...   ...        ...   ...   ... 
 
Outro 
 
|-------------------------------------------------------------------------| 
|-------------------------------------------------------------------------| 
|-------------------------------------------------------------------------| 
|--9-9-9-10-9-12~---------------------------------------------------------| 
|--7-7-7-8--7-10~------------2--------------------------------------------| 
|----------------------------0--------------------------------------------| 
 
 
Lyrics: 
 
Cursed 
Black magic night 
We've been struck down 
Down in this Hell 
Spells surround me day and night 
Stricken by the force of evil light 
The force of evil light 
 
Cast 
Under his spell 
Blinding my eyes 
Twisting my mind 
Fight to resist the evil inside 
Captive of a force of Satan's might 
A force of Satan's might 
 
Fighting the curse 
Break it I must 
Laughing in sorrow 
Crying in lust 
 
My strength slips away 
Soon I must fall 
Victim of fortune 
My sources grow small 
Life slips away 
As demons come forth 
Death takes my hand 
And captures my soul 
 
 
 
 
 
 
 
 
 
 
 
 
 
 
 
black magic (solo) 
album:show no mercy  
slayer 
 
tabbed by Rudy Guzman 
    
                                               play 4 times 
e:|-------------------------------------------------------------| 
B:|-------------------------------------------------------------| 
G:|-------------------------------------------------------------| 
D:|-------------------------------------------------------------| 
A:|---------7-----------7-8-----------7-8-10-8-----8-7----------| 
E:|-0-0-0-0-----0-0-0-0-------0-0-0-0----------10---------------| 
 
 
 
e:------------------------| 
B:------------------------| 
G:------------------------| 
D:-14h15p14h15p14h15p14etc| 
A:------------------------| 
E:------------------------| 
 
 
solo 1 
e:----19b-19b-19b---19b-19b----19b--19b--19b--19b--19b--19--22b-| 
B:-22-22b-22b-22b---22b-22b----22b--22b--22b--22b--22b----------| 
G:--------------------------------------------------------------| 
D:--------------------------------------------------------------| 
A:--------------------------------------------------------------| 
E:--------------------------------------------------------------| 
 
 
e:-19-22-21-19-22-22-21-19-24-21-19-22-21-19-24-21-19-22-22-19-------| 
B:-------------------------------------------------------------22\x/-| 
G:-------------------------------------------------------------------| 
D:-------------------------------------------------------------------| 
A:-------------------------------------------------------------------| 
E:-------------------------------------------------------------------| 
 
 
         repeat 5 times                                      repeat 2  
times                                                                                 
e:-18p15*-------18p15-18p15*---------------------------------*----------| 
B:------*-18p15------------*-18p15-15-18p15------------------*----------| 
G:------*------------------*----------------17-15-14-17-15-14*----------| 
D:------*------------------*---------------------------------*-17-15-14-| 
A:------*------------------*---------------------------------*----------| 
E:------*------------------*---------------------------------*----------| 
 
 
 
 
e:------------------------22-22-22-----------------------------------------| 
B:------------------------------------------22-22-22-21-21-21--------------| 
G:---------------------------------19-19-19--------------------22-22-22----| 
D:-------------------------------------------------------------------------| 
A:15-13-12-----------------------------------------------------------------| 
E:---------15-13-12-(12)\--------------------------------------------------| 
 
 
   
               
e:----------------------------------------------------------17-\---------------| 
B:----------------------------------------------17-20-19-17--------------------| 
G:-------------------19-(19)\---20-17----17-20--------------------5h7p5h7p5etc-| 
D:-19-19-19-21-21-21------------------19---------------------------------------| 
A:-----------------------------------------------------------------------------| 
E:-----------------------------------------------------------------------------| 
 
 
 
 
e:-----------------------------------------------------------------15b/17b-| 
B:-------------------------------------15-15-15-17-17-17-18-18-18--18b/20b-| 
G:-5-7/12---14-14-14-15-15-15-17-17-17-------------------------------------| 
D:-------------------------------------------------------------------------| 
A:-------------------------------------------------------------------------| 
E:-------------------------------------------------------------------------| 
 
 
 
 
solo 2 
e:--------------------------------------------------------------------| 
B:--------------------------------------------------------------------| 
G:--------------------------------------------------------------------| 
D:--------------------------------------------------------------------| 
A:--------------------------------------------------------------------| 
E:-3-4-6-4-5-7-5-6-8-7-8-10-8-9-11-9-10-12-11-12-14-12-13-15-13-14-16-| 
 
 
 
e:-----------------------------------x\---x\-----------| 
B:-------------------------------x\--x\-------x\-------| 
G:-------------------------------x\--------------------| 
D:------------------14-17--x\---------------------x\---| 
A:---------14-15-17--------x\---------------------x\---| 
E:14-15-17---------------------------------------------| 
 
 
 
e:---------------------------------------------------------------| 
B:---------------------------------------------------------------| 
G:--------------------------------7-10-7----------7-10-7---------| 
D:-----5---5--7-5/9\7\5/7-10-7-10--------10-7-10---------10-7-10-| 
A:-7-----7-------------------------------------------------------| 
E:---------------------------------------------------------------| 
 
 
 
 
                           bar 
e:----------------------------------------------------------| 
B:----------------------5AH---------------------------------| 
G:7--8-7------10-7------5AH---------------------------------| 
D:-------10-7------10-7------------2--2p0h2-3p2-------------| 
A:----------------------------------------------3p2p0-3p2p0-| 
E:----------------------------------------------------------| 
 
 
 
                                            trem. bar 
e:------------------------------------------------------------------| 
B:------------------------------------------------------------------| 
G:-----------------------------------7h9p7h9p7h9p7h9p7h9p7h9p7h9etc-| 
D:-----------------------------7-9-9--------------------------------| 
A:----------5-----7p5---9p7--9--------------------------------------| 
E:-4----5h7---7p5-----7---------------------------------------------| 
 
 
     bar            trem. bar 
e:------------------------------------------------------| 
B:-------------12AH-------------------------------------| 
G:-7h9---------12AH-------------------------------------| 
D:----------12------------------------------------------| 
A:------------------------------------------------------| 
E:------------------------------------------------------| 
 
 
 
e:------------------------------------------------------| 
B:-18-18-18-18-18-18-18-18-17h18-17-15-18-18-17-15-18-18| 
G:------------------------------------------------------| 
D:------------------------------------------------------| 
A:------------------------------------------------------| 
E:------------------------------------------------------| 
 
 
e:-----------------------------------------18-18-18b-| 
B:18-18-18-18-18-18-18-18-17-15-18\-/17p15-----------| 
G:---------------------------------------------------| 
D:---------------------------------------------------| 
A:---------------------------------------------------| 
E:---------------------------------------------------| 
 
 
 
 
e:15-15-18p15-18p15-18p15-------------17-19-19-17-19-19-17| 
B:------------------------17\-/18/19----------------------| 
G:--------------------------------------------------------| 
D:--------------------------------------------------------| 
A:--------------------------------------------------------| 
E:--------------------------------------------------------| 
 
 
 
 
e:17-22-22-17-17-19-19-17-19-17-22-22-17-17-19-19-17-19-17-22-22-| 
B:---------------------------------------------------------------| 
G:---------------------------------------------------------------| 
D:---------------------------------------------------------------| 
A:---------------------------------------------------------------| 
E:---------------------------------------------------------------| 
 
 
 
e:17-17-19-19-17-19-17-22-22-17-x-17-19-17-22-17-17-22-22-22b-22b| 
B:---------------------------------------------------------------| 
G:---------------------------------------------------------------| 
D:---------------------------------------------------------------| 
A:---------------------------------------------------------------| 
E:---------------------------------------------------------------| 
 
 
 
 
 
 
 
 
 
 
 
 
 
 
 
 
 
 
 
 
 
 
 
 
 
 
 
 
 
 
 
"BLACK MAGIC" - SLAYER 
 
This is a correct version of Black Bagic 
 
Standard Tuning 
 
                   Play x4   Play x4                   Play x4 
 E--||-------------------|---------|-------------------------| 
 B--||-------------------|---------|-------------------------| 
 G--||-------------------|---------|-------------------------| 
 D--||-------------------|---------|-------------------------| 
 A--||--3333333333333333-|---------|-5-~-5-6-x-5-6-8-6---6-5-| 
 E--||--1111111111111111-|-1-1-1-1-|-------------------8-----| 
PM--||--xxxxxxxxxxxxxxxx-|--Bass---|---------x---------------| 
 
                  Play x4                   Play x2 
 E--||------------------|-------------------------| 
 B--||------------------|-------------------------| 
 G--||--7-x-7\8-7-x-3\5-|-------------------------| 
 D--||--7-x-7\8-7-x-3\5-|-------------------------| 
 A--||--5-x-5\6-5-x-1\3-|-5-~-5-6-x-5-6-8-6---6-5-| 
 E--||------------------|-------------------8-----| 
PM--||----x-------x-----|-------------------------| 
 
    Verse "Cursed -Black magic night ..." 
 E--|---------------------------------------------| 
 B--|---------------------------------------------| 
 G--|---------------7-7-8-7---------------------7-| 
 D--|---------------7-7-8-7---------------------7-| 
 A--|--555555555555-5-5-6-5-555555555555--8-7-6-5-| 
 M--|--555555555555---------555555555555--8-7-6---| 
PM--|--xxxxxxxxxxxx---------xxxxxxxxxxxx----------| 
 
     Verse "Spells surround ...." 
 E--|--------------------------------------| 
 B--|--------------------------------------| 
 G--|--------------------------------------| 
 D--|--------------------------------------| 
 A--|--------------------------------------| 
 E--|--44444444-66666666-11111111-22222222-| 
PM--|--xxxxxxxx-xxxxxxxx-xxxxxxxx-xxxxxxxx-| 
 
    Verse "Fighting the curse..." Play x4 
 E--|-------------------| 
 B--|-------------------| 
 G--|-------------------| 
 D--|-----------11-10-9-| 
 A--|--99999999--9--8-7-| 
 E--|--77777777---------| 
PM--|--xxxxxxxx---------| 
 
    Verse "My Strength slip away..." 
 E--|-----------------------------------| 
 B--|-----------------------------------| 
 G--|-----------------------------------| 
 D--|--------------7-8-------------7\88-| 
 A--|--333-333-333-5-6-333-333-333-5\66-| 
 E--|--111-111-111-----111-111-111------| 
PM--|--xxx-xxx-xxx-----xxx-xxx-xxx------| 
 
I can't figure the solo now. 
For comments and corrections EMail to trash@itcnet.it
  development and support by
dmitry ivanov