rock
 
|tablatures   |lyrics   |discussion forums   |more tabs @ XGuitar.com

Slayer tabs

Black Magic bass tab

Slayer - Show No Mercy
Black Magic

Bass tab by Andre Couto (aka "Andre The Wizard (murder in the rue morgue)")
ICQ # 8949302
07/03/99

note: "*"s are used to represent the same note X times (listen to the song).
% = repeat previous bar

   0:40 not sure if bass plays this
G------------------|------
D------------------|------
A--7--7-8--7-------|--7---
E-------------8-10-|----0- ...

   1:02
G----------------------|-
D----------------------|-
A--7---7-7-8-7---------|-
E----------------3-2-1-|-

G------------------|
D------------------|
A------------------|
E--0*--------3-2-1-|

G----------------------|
D----------------------|
A--0*---2*-------------|
E------------2*---3*---|

   2:08
G----------------
D----------------
A--0*------------
E----------------

   2:20
G---------------------------------------------------------
D---------------------------------------------------------
A---------------------------------------------------------
E--0-0-0-0-0-...------------------------------------------

   2:30 solo
G----------------------|
D----------------------|
A--2*---1*-------------|
E------------0*---1*---|

   2:50
G-------------------------------------|
D-------------------------------------|
A-------------------------------------|
E--0-0-0-0-0-0-0-1--0-0-0-0-0-0-0-1-1-|

solo - main riff , 2:30 part

   3:45
G----------------------------------||
D----------------------------------||
A----------------------------------||
E--0-0-0-0-...-0-1-0--/3--------0--||
  development and support by
dmitry ivanov