rock
 
|tablatures   |lyrics   |discussion forums   |more tabs @ XGuitar.com

Slayer tabs

At Dawn They Sleep guitar tab

Slayer 
At Dawn They Sleep 
Hell Awaits 
Tabbed by Mike Kimball 
 
If it looks f***ed up, try changing the font to something 
non-proportional, such as Courier or Monaco, size 12, with 
6" line width. 
  
 
Fig. 1 
 
Gtr. 1 
|--------------------------------------------[-----------] 
|--------------------------------------------[-----------] 
|----------5-4-------------------------------[-----------] 
|--------6-------------5-4-------------------[---7-6-----] 
|--------------------6-------------4-3-------[-8-----7-6-] 
|--0-0-0-------0-0-0-------0-0-0-5-----4-3---[-----------] 
 
Gtr. 2 
|--------------------------------------------[-----------] 
|--------------------------------------------[-----------] 
|----------8-7-------------------------------[-no change-] 
|--------9-------------8-7-------------------[-----------] 
|--------------------9-------------7-6-------[-----------] 
|--0-0-0-------0-0-0-------0-0-0-8-----7-6---[-----------] 
 
 
Fig. 2 
 
Eighth note open E string, all downstrokes. 
Regular power chords. 
 
0-0-0-0-F-E-Eb-0-0-0-0-0-C#-C-B-0 
0-0-0-0-F-E-Eb-0-G-F#-F-0-D-C#-C-0 
 
 
Fig. 3 
|--------------------------------------------------- 
|--------------------------------------------------- 
|--------------------------------------------------- 
|--------------------------5---5-------------------- 
|------------3-2-----------5---5-------------3-2---- 
|--2-2-2-2-4-----3-2-2-2-2-3---3---2-2-2-2-4-----3-- 
 
|---------------------------------------------------- 
|---------------------------------------------------- 
|---------------------------------------------------- 
|----------5---7---------------------------5---5----- 
|----------5---7-------------3-2-----------5---5----- 
|--2-2-2-2-3---5---2-2-2-2-4-----3-2-2-2-2-3---3----- 
 
|----------------------------------- 
|----------------------------------- 
|----------------------------------- 
|------------------7-------5-------- 
|------------3-2---7-------5-------- 
|--2-2-2-2-4-----2-5-------3-------- 
 
 
Fig. 4 
 
Gtr. 1 
|------------------------------6---------- 
|--------------------------6-8---8-7~~~~-- 
|----------------7-6---6-7---------------- 
|----7-6---6-7-8-----7-------------------- 
|--8-----7-------------------------------- 
|----------------------------------------- 
 
Gtr. 2 
|----------------------------------------- 
|------------------------------6---------- 
|----------------------------7---7-6~~~~-- 
|----------------7-6---6-7-8-------------- 
|----7-6---6-7-8-----7-------------------- 
|--8-----7-------------------------------- 
 
 
Fig. 5 
 
Gtr. 1 
|--------------------|-----------------|----------------- 
|--------------------|-----------------|----------------- 
|--------------------|-----------------|----------------- 
|----------3---------|-------1-------4-|-------1--------- 
|----------3---------|---3-2-----6-5---|---3-2-----6-5--- 
|--0-0-0-0-1-0-0-3-1-|-1-------4-------|-1-------4-----6- 
 
Gtr. 2 
|--------------------|-----------------|----------------- 
|--------------------|-----------------|----------------- 
|--------------------|-------3-------6-|-------1--------- 
|-- same as gtr.1  --|---5-4-----8-7---|---3-2-----6-5--- 
|--------------------|-3-------6-------|-1-------4-----6- 
|--------------------|-----------------|----------------- 
 
 
Fig. 6 
|-----------------------------|------------------------ 
|-----------------------------|------------------------ 
|--9-------9-----9/10-9-------|------------------------ 
|--9-------9-----9/10-9-------|----------------7------- 
|--7-------7-----7/8--7-------|---7-8---7-8-10-----7-8- 
|----0-0-0---0-0--------0-0-0-|-0-----0----------0----- 
 
|----------------------------------------------- 
|----------------------------------------------- 
|----------------------------------------------- 
|--------7-8----------------7------------------- 
|----7-8-------7-8---7-8-10-----7-8---7-8------- 
|--0---------0-----0----------0-----0-----8-10-- 
 
 
Fig. 7 
|--------------------|-------------------------- 
|--------------------|-------------------------- 
|------9-9-----10-10-|-------------------------- 
|------9-9-----10-10-|-2---2---3---3------------ 
|--7-7-----8-8-------|-2---2---3---3------------ 
|--------------------|-0---0---1---1---00000000- 
 
|----------- 
|----------- 
|----------- 
|----------- 
|----------- 
|--11111111- 
 
 
Fig. 8 
|------------------|------------------- 
|------------------|------------------- 
|------------------|------------------- 
|--4-------4-5-----|----------4---3---- 
|--4-------4-5-----|----------4---3---- 
|--2-0-2-0-2-3-2-0-|--2-0-2-0-2---1---- 
 
 
 
Fig. 9 
|----------------------------------------------------- 
|----------------------------------------------------- 
|--9---9-9-9-9-9-12-9---9-9-9-9-9-11-9---9-9-9-9-9-10- 
|--9---9-9-9-9-9-12-9---9-9-9-9-9-11-9---9-9-9-9-9-10- 
|--7---7-7-7-7-7-10-7---7-7-7-7-7-9--7---7-7-7-7-7-8-- 
|----------------------------------------------------- 
 
|------------------- 
|------------------- 
|--9-8---8-7---7-6-- 
|--9-8-8-8-7-7-7-6-- 
|--7-6-8-6-5-7-5-4-- 
|------6-----5------ 
 
 
Fig. 10 
|------------------|------------------- 
|------------------|------------------- 
|------------------|--8-7---7-6---6-5-- 
|--4-------4-5-----|--8-7-7-7-6-6-6-5-- 
|--4-------4-5-----|--6-5-7-5-4-6-4-3-- 
|--2-0-2-0-2-3-2-0-|------5-----4------ 
 
 
Ending:  Repeat Fig. 2 
 
 
For comments, commendations, or criticisms, please 
e-mail me at fulfillment@geocities.com 
 
 
****FOR EDUCATIONAL USE ONLY!!  USE THIS FOR COMMERCIAL**** 
****PURPOSES, AND WE WILL HUNT YOU DOWN, KILL YOU, THEN**** 
****TORTURE YOUR IMMORTAL SOUL FOR ALL ETERNITY!!!!!!!!**** 
 
 
 
 
 
 
 
 
 
 
 
 
 
 
 
 
 
 
 
 
 
 
AT DAWN THEY SLEEP (solo) 
SLAYER 
ALBUM: HELL AWAITS 
 
TRANSCRIBED BY RUDY GUZMAN 
 
solo 1 
eb:20b----------------------------------------------------------------------------9AH-| 
Bb:-----------10-11-10-11-10-11-13---6-5-6-8-6-5--------------------------------------| 
Gb:----------------------------------------------8-5-6-8-6-5--------5h7p5---5h7p5-----| 
Db:----10~~~-------------------------------------------------7-7-7--------7-----------| 
Ab:-----------------------------------------------------------------------------------| 
Eb:-----------------------------------------------------------------------------------| 
 
 
    
:------------------------------------------------------------------------------------------| 
:------------------------------------------------------------------------------------------| 
:-14t-10p7-14t-10p7-15t-10p9-15t-10p9-15t-12p10-15t-12p10-16t-13p10-16t-13p10--17AH--19AH~~| 
:------------------------------------------------------------------------------------------| 
:------------------------------------------------------------------------------------------| 
:------------------------------------------------------------------------------------------| 
 
 
 
:15t-12p9-15t-12p9-16t-13p10-16t-13p10-17t-14p11-18t-15p-12-19t-16p13-20t-17p14-20t-18p15-| 
:-----------------------------------------------------------------------------------------| 
:-----------------------------------------------------------------------------------------| 
:-----------------------------------------------------------------------------------------| 
:-----------------------------------------------------------------------------------------| 
:-----------------------------------------------------------------------------------------| 
 
 
                bar                                     
-------------------------- 
:21t-19p16-21b---------------------------------------19b-22t-22t-22t-22t-etc...---| 
:---------------------------------------------------------------------------------| 
:----------------15----/15~~~--14~~~--15~~~--14~~~--------------------------------| 
:---------------------------------------------------------------------------------| 
:---------------------------------------------------------------------------------| 
:---------------------------------------------------------------------------------| 
 
 
 
solo 2    
 
:12b-(12)-(12)-12h13p12h13p12h13p12etc--12-13-15-13-12-------------------------------------| 
:------------------------------------------------------15-12-13-15-13-12-------------------| 
:------------------------------------------------------------------------15-12-14-15-14-12-| 
:------------------------------------------------------------------------------------------| 
:------------------------------------------------------------------------------------------| 
:------------------------------------------------------------------------------------------| 
 
 
:---------------------------------------------------------------------------------------| 
:---------------------------------------------------------------------------------------| 
:---12h14p12----12h14b~~~~--------------------------------------------------------------| 
:15----------15-------------12-14-15-14-12----------------------------------------------| 
:------------------------------------------17-14-15-17-15-14---------------------7-8-10-| 
:-------------------------------------------------------------17-14-15-17-15-14\--------| 
 
 
:---------------------------------------------------------------------------------------| 
:---------------------------------------------------------------------------------------| 
:---------------------------------------------------------------------------------------| 
:-------------------------7-8-10-7-8-10--9-10-12--9-10-12--11-12-14--11-12-14--12-13-15-| 
:7-8-10--9-10-12-9-10-12----------------------------------------------------------------| 
:---------------------------------------------------------------------------------------| 
 
 
 
:------------------------------------------------------------------------------------------| 
:------------------------------------------------------------------------------------------| 
:------------------------------12-14b--13-14-16--13-14-16----------------13-14-16-13-14-16-| 
:12-13-15--14-15-17--14-15-17-----------------------------16-14-13-14-16-------------------| 
:------------------------------------------------------------------------------------------| 
:------------------------------------------------------------------------------------------| 
 
 
 
:---------------13-14-13-14-16b~~~~~-| 
:13-14-13-14-16----------------------| 
:------------------------------------| 
:------------------------------------| 
:------------------------------------| 
:------------------------------------| 
 
solo 3 
 
bar/\/\/\/\/\/\/\/\/\/\ 
:------------------------------------------------------------12h13p12h13p12h13p15p13p12h13p12| 
:---------------------------------------12h13p12h13h15p13p12---------------------------------| 
:0--(0)---(0)---(0)-etc--12h14p12h14p12------------------------------------------------------| 
:--------------------------------------------------------------------------------------------| 
:--------------------------------------------------------------------------------------------| 
:--------------------------------------------------------------------------------------------| 
 
 
:----------------------------------------------------------18b-21b--21-18-19-18-19-21-19-18-| 
:15-12-13-15-13-12-------------15b-16b-17b-18b-19b-20b-21b----------------------------------| 
:------------------15-12--14b---------------------------------------------------------------| 
:-------------------------------------------------------------------------------------------| 
:-------------------------------------------------------------------------------------------| 
:-------------------------------------------------------------------------------------------| 
 
 
:19-18-----------------------------------------| 
:------21-18-19-21-19-18--21-18--19---19b~~~~~-| 
:----------------------------------------------| 
:----------------------------------------------| 
:----------------------------------------------| 
:----------------------------------------------|
  development and support by
dmitry ivanov