rock
 
|tablatures   |lyrics   |discussion forums   |more tabs @ XGuitar.com

Slayer tabs

Aggressive Perfector guitar tab

Aggressive Perfector 
By Slayer 
tabbed by Gabriel Hidalgo 
tune your guitar to Eb (at least that was the tuning on my  
                        guitar when I tabbed out this song)  
 
The intro chords are  G F# F F F F  E 
 
|---------------------------------------------------------| 
|---------------------------------------------------------| 
|-101010101010--------------------------------------------| 
|-------------------------12-11---12-11--12-11--7-99------| 
|--------------/x---------10\9----10\9---10\9---5-77------| 
|-------------/x------000------000----000-----------------| 
  
(the /x means "slide up to nowhere in particular") 
 
 "Haunting down.... on the knees...." 
|--------------------------------------------------| 
|--------------------------------------------------| 
|--------------------------------------------------| 
|---4--2-4----10-8-10-----4--2-4-5----10-9-7-------| 
|---2--0-2----8--6-8------2--0-2-3----8--7-5-------| 
|--------------------------------------------------| 
 
Interlude  B A# D C#  
 
 
|--------------------------------------------------| 
|--------------------------------------------------| 
|--------------------------------------------------| 
|--------------------------------------------------| 
|-2p0-2-0-2-0--------------------------------------| 
|-------------3-0----------------------------------| 
 
Solo rythm (interlude) 
 
For outro 
 
 
|---------------------------------------------------| 
|---------------------------------------------------| 
|---------------------------------------------------| 
|--------4-4-4--5-5-5-------------------------------| 
|--------2-2-2--3-3-3-------------------------------| 
|-000000--------------------------------------------| 
 
Repeat this like 4 times and end in a E power chord.
  development and support by
dmitry ivanov