rock
 
|tablatures   |lyrics   |discussion forums   |more tabs @ XGuitar.com

Slayer tabs

Aggressive Perfector bass tab

AGGRESSIVE PERFECTOR - Slayer
          Tabbed by Stefan Hofmann

          Verse Riff

          |---------------------------------------------------|
          |---------------------------------------------------|
          |--------10p9-----------10p9-----------10p9---5---7-|
          |0-0-0----------0-0-0----------0-0-0----------------|


          Chorus Riff

          |-----------------------------------------------------|
          |-----------------------------------------------------|
          |2---0--2------8---6--8---0--2---0--2--3------8--7--5-|
          |-----------------------------------------------------|


          Riff A

          |----------------------------------------------------------|
          |----------------------------------------------------------|
          |--------------3------2--------------------3------2------3-|
          |5------4--------------------5------4----------------------|


          Riff B

          |----------------------|
          |----------------------|
          |2p0h2---0--2----------|
          |--------------3--2--3-|


          Solo Riff

          |--------------------------------
          |--------------------------------
          |--------------------------------
          |5-5-5-5-5-5-5-5-4-4-4-4-4-4-4-4-

          --------------------------------|
          --------------------------------|
          3-3-3-3-3-3-3-3-2-2-2-2-2-2-2-2-|
          --------------------------------|


          Riff C

          |----------------------------------|
          |----------------------------------|
          |7-------7-------7-----------------|
          |--0-0-0---0-0-0---0-0-0-0-0-0-0-0-|

          Riff D

          |-------------------------------------------------|
          |-------------------------------------------------|
          |2--2----2--3--3----3-----------------------------|
          |----------------------0--0---0-0-0---0-0---0-0-0-|


          Riff D1

          |----------------------------------------------|
          |----------------------------------------------|
          |2--2--2--3--3--3------------------------------|
          |------------------0--0---0-0-0---0--0---0-0-0-|


          End

          |--------------------------------------|
          |------------------------------------2-|
          |2--2--2--3--3--3--3--3--3--3--3--3----|
          |--------------------------------------|



          That's it! Tom played a short but complicated Intro at
          the beginning of the song, but I'm not able to tab that.
          It sounds like "dee-deedeelee-doo-doo-doo", you know what
          I mean. :-)))

          For questions, comments etc. send e-mail to:

          *** maulwurf@hotmail.com ***
  development and support by
dmitry ivanov