rock
 
|tablatures   |lyrics   |discussion forums   |more tabs @ XGuitar.com

Santana tabs

You Are My Kind guitar tab

Santana
You are my kind (INTRO)
Feaut. Seal
Tabbed by :şīmīş

INTRO

E|------------------------|-------------------------|
B|------------------------|-------------------------|
G|---9--7--9--7--9--7—9\\---|--7-7--5--7--5--7--5--2-5|
D|------------------------|-------------------------|
A|------------------------|-------------------------|
E|------------------------|-------------------------|


E|------------------------|---------7-8-7-5~-----5--8--8--10--|
B|------------------8-8---|---5--8-----------8---------------|
G|---7--5--7--5--7---—----|----------------------------------|
D|------------------------|----------------------------------|
A|------------------------|----------------------------------|
E|------------------------|----------------------------------|


E|--12-10--12-10--12-10--12~-|--8--10-8--10-8--10-8---5--8-|
B|---------------------------|-----------------------------|
G|---------------------------|-----------------------------|
D|---------------------------|-----------------------------|
A|---------------------------|-----------------------------|
E|---------------------------|-----------------------------|

                                                                                                                           I’m not sure on this part
                                                  /                 \\
E|--10-8--10-8--10---15-12-15-|--17--17--17--17----15-13-11-10-------|
B|----------------------------|--15--15--15--15----------------12-13-|
G|----------------------------|--------------------------------------|
D|----------------------------|--------------------------------------|
A|----------------------------|--------------------------------------|
E|----------------------------|--------------------------------------|


Pleace send corrections to :svr_freak@hotmail.com
ICQ:179386680
  development and support by
dmitry ivanov