rock
 
|tablatures   |lyrics   |discussion forums   |more tabs @ XGuitar.com

Santana tabs

Waiting guitar tab

Song:Waiting
Album:Santana
Artist/band:Santana
Tabbed by:Pablo Alvarado

This is my first tab so it's not so perfect but it doesn't sound wrong...I'm not
sure about the chords but they are not so important...if there are any big
mistakes you can mail me at milagro408@hotmail.com

                Legendary symbols

                 ^=bend
                 r=release
                 p=pull off
                 h=hammer on
                 /=slide up
                 \=slide down


Chords
|----------|         |----------|
|----3-----|         |----5-----|
|----3-----|         |----5-----|
|----3-----|         |----5-----|
|----------|         |----------|
|----------|         |----------|


1st solo
|---------3-------------------------3---3-------------------------/3-3-3--
|3------3-----6p3----3-3-------3----6^-----6--3---------3-3---------------
|3---5^--------------3-3-------3-----------------5^rp3--3-3---------------
|3-----------------------------3------------------------------------------
|-------------------------------------------------------------------------
|-------------------------------------------------------------------------


--3------------------8^-8^--6-8-------------3-----------------
----6p3--------------------------8------------6p3-------------
---------5^rp3-------------------------------------5^rp3------
--------------------------------------------------------------
--------------------------------------------------------------
--------------------------------------------------------------


--------3----3---3----3----3---------------|
----6^---6^---6^---6^---6^------3-3-3\-----|
--------------------------------3-3-3\-----|
--------------------------------3-3-3\-----|
-------------------------------------------|
-------------------------------------------|


2nd solo
|--3----5---6-----8----------------------------------------
|--6^---8^--9^---11^----12^rp10---------------------------
|----------------------------------12-12-12----------------
|----------------------------------------------------------
|----------------------------------------------------------
|----------------------------------------------------------

---3---5---6-----8----10-----/15-15-15-15---------------
---6^--8^--9^---11^---13^------------------15p13--------
--------------------------------------------------15-----
---------------------------------------------------------
---------------------------------------------------------
---------------------------------------------------------

                                                |      several times      |
-18^-18^-18^--15h18-15h18-15h18-15h18-15-17-18--18p17p15-18p17p15-18p17p15-
---------------------------------------------------------------------------
---------------------------------------------------------------------------
---------------------------------------------------------------------------
---------------------------------------------------------------------------
---------------------------------------------------------------------------


-----15-----17------15-----------------------------------------------------
-18^----15------18-------18p15---------------------------------------------
--------------------------------17^rp15---17^rp15-----17-17-17-17-17-17-17-
--------------------------------------------------17-----------------------
---------------------------------------------------------------------------
---------------------------------------------------------------------------


-------------------------------------------------------------------------
-------------------15-----15-----15-----15-----15-18p15-------15-18p15---
-17p15---------17^----17^----17^----17^----17^------------17^------------
--------17--------------------------------***********Repeat************--
-------------------------------------------------------------------------
-------------------------------------------------------------------------


---------------------3---5----6----8---------------------------------------
-------15-18p15\-----6^--8^---9^---11^----12^rp10--------------------------
---17^---------------------------------------------12-12-12---10h12-10h12--
---------------------------------------------------------------------------
---------------------------------------------------------------------------
---------------------------------------------------------------------------

                                |  several times   |
--3----5----6-----8-----10-------15--15--15--15--15---------|
--6^---8^---9^----11^---13^------18^-18^-18^-18^-18^--------|
------------------------------------------------------------|
------------------------------------------------------------|
------------------------------------------------------------|
------------------------------------------------------------|
  development and support by
dmitry ivanov