rock
 
|tablatures   |lyrics   |discussion forums   |more tabs @ XGuitar.com

Santana tabs

Victory Is Won guitar tab

Artist: Santana
Song: Victory is Won
Album: Shaman
Transcribed by: bkohut@cejka.com


      h - hammer on
      p - pull off

      / - slide up
      \ - slide down
      ~ - vibrato


Melody C major Pentatonic or A minor Pentatonic



		   Fmaj7  /     /     /     /     /    /      /

E------------------|----------------------|----------------------|
B------------------|----------------------|----------------------|
G------------12-12-|-14-12-14-~~~~~~~-----|-----12-h-14-12-------|
D------14-14-------|----------------------|-----------------12---|
A------------------|----------------------|----------------------|
E------------------|----------------------|----------------------|



 Cmaj7 /    /    /   /     /    /     /	   Fmaj7  /    /   /   /
E------------------|----------------------|----------------------|
B------------------|----------------------|----------------------|
G------------------|----------------12-12-|-14-12-14~~~~~~~~-----|
D-14-14~~~~~~~~~~~-|-------14-14-14-------|----------------------|
A------------------|----------------------|----------------------|
E------------------|----------------------|----------------------|



Fmaj7     /   /   /  Cmaj7 /    /    /      /     /    /     /	
E------------------|----------------------|----------------------|
B------------------|----------------------|----------------------|
G-----12-14-12-----|----------------------|---------12h14-12---9-|
D---------------12-|--14-14~~~~~~~~~~~~---|------------------5---|
A------------------|----------------------|----------------------|
E------------------|----------------------|----------------------|

Dm   /    /     /   /     /    /      /	   Am  /    /    /    /

E------------------|----------------------|----------------------|
B------------------|----------------------|----------------------|
G-7----------------|-------7/9-9\7--5-----|-5--5-----------------|
D------------------|--------------------7-|----------------------|
A------------------|----------------------|----------------------|
E------------------|----------------------|----------------------|

 /     /   /   /   Fmaj7  /     /     /     /     /    /      /

E------------------|----------------------|----------------------|
B------------------|----------------------|----------------------|
G------------12-12-|-14-12-14~~~~~~~~~~~~~|-----12-14-12---------|
D------14-14-------|----------------------|-----------------12---|
A------------------|----------------------|----------------------|
E------------------|----------------------|----------------------|



 Cmaj7 /    /    /   /     /    /     /	   Fmaj7  /    /   /   /
E------------------|----------------------|----------------------|
B------------------|----------------------|----------------------|
G------------------|-------------------12-|-14-12-14-------------|
D-14-14~~~~~~~~~~~-|----------14-14-14----|----------------------|
A------------------|----------------------|----------------------|
E------------------|----------------------|----------------------|



Fmaj7     /   /   /  Cmaj7 /    /    /      /     /    /     /	
E------------------|----------------------|----------------------|
B------------------|----------------------|----------------------|
G-----14-14-12-----|----------------------|---------12h14--12--9-|
D---------------12-|--14-14---------------|------------------5---|
A------------------|----------------------|----------------------|
E------------------|----------------------|----------------------|

Dm   /    /     /   /     /    /      /	   Am  /    /    /    /

E------------------|----------------------|----------------------|
B------------------|----------------------|----------------------|
G-7---7/9-9\7--5---|----------7/9-9\7--5--|-5--5-----------------|
D|---------------7-|---------------------7|----------------------|
A------------------|----------------------|----------------------|
E------------------|----------------------|----------------------|



/     /   /    /   Fmaj7  /     /     /     /     /    /      /

E------------------|----------------------|----------------------|
B--------12-h-3-12-|----------------------|----------------------|
G-----12-----------|-14-12-14-------------|-----12-h-14-12-------|
D------------------|----------------------|-----------------12---|
A------------------|----------------------|----------------------|
E------------------|----------------------|----------------------|



 Cmaj7 /    /    /   /     /    /     /	   Fmaj7  /    /   /   /
E------------------|----------------------|----------------------|
B------------------|-----------12-h-13-12-|----------------------|
G------------------|---------12-----------|-14-12-14-------------|
D-14~~~~~~~~~~~~~~-|----------------------|----------------------|
A------------------|----------------------|----------------------|
E------------------|----------------------|----------------------|



Fmaj7     /   /   /  Cmaj7 /    /    /      /     /    /     /	
E------------------|12-12~~~~~~~~~~\------|----------------------|
B--------------13--|----------------------|----------------------|
G-----14-14-14-----|----------------------|---------12h14--12--9-|
D------------------|----------------------|------------------5---|
A------------------|----------------------|----------------------|
E------------------|----------------------|----------------------|

Dm   /    /     /   /     /    /      /	   Am  /    /    /    /

E------------------|----------------------|----------------------|
B------------------|----------------------|----------------------|
G-7----7/9-9\7--5--|-------7/9-9\7--5-----|--5--5----------------|
D----------------7-|--------------------7-|----------------------|
A---------------- -|-------------------- -|----------------------|
E------------------|----------------------|----------------------|

/   /    /     /    Fmaj7  /     /     /     /     /    /      /
		    Organ Solo
E------------------|----------------------|----------------------|
B------------------|----------------------|----------------------|
G------------------|----------------------|----------------------|
D------------------|----------------------|----------------------|
A------------------|----------------------|----------------------|
E------------------|----------------------|----------------------|

Cmaj7 /    /    /      /     /    /     /  Repeat Chords 7 x
					   Through Solo
E------------------|----------------------|----------------------|
B------------------|----------------------|----------------------|
G------------------|----------------------|----------------------|
D------------------|----------------------|----------------------|
A------------------|----------------------|----------------------|
E------------------|----------------------|----------------------|

/     /   /    /   Fmaj7  /     /     /     /     /    /      /

E------------------|----------------------|----------------------|
B-------12-h-13-12-|----------------------|----------------------|
G-----12-----------|-14-12-14-------------|-----12-h-14-12-------|
D------------------|----------------------|-----------------12---|
A------------------|----------------------|----------------------|
E------------------|----------------------|----------------------|



 Cmaj7 /    /    /   /     /    /     /	   Fmaj7  /    /   /   /
E------------------|----------------------|----------------------|
B------------------|-----------12-h-13-12-|----------------------|
G------------------|---------12-----------|-14-12-14-------------|
D-14~~~~~~~~~~~~~~-|----------------------|----------------------|
A------------------|----------------------|----------------------|
E------------------|----------------------|----------------------|



Fmaj7     /   /   /  Cmaj7 /    /    /       Solo Not Transcribed
E------------------|12~12~~~~~~~~~~\------|----------------------|
B--------------13--|----------------------|----------------------|
G-----14-14-14-----|----------------------|----------------------|
D------------------|----------------------|----------------------|
A------------------|----------------------|----------------------|
E------------------|----------------------|----------------------|




Am  /    /    /     Dm   /    /     /   /     /    /      /	

E------------------|----------------------|----------------------|
B------------------|----------------------|----------------------|
G----12h14--12---9-|-7----7/9-9\7--5------|------7/9-9\7--5------|
D--------------5---|----------------------|--------------------7-|
A------------------|----------------------|----------------------|
E------------------|----------------------|----------------------|

Am

E------------------|    Repeat 3X, Slow fade on last repeat
B------------------|
G-5--5-------------|
D------------------|
A------------------|
E------------------|
  development and support by
dmitry ivanov