rock
 
|tablatures   |lyrics   |discussion forums   |more tabs @ XGuitar.com

Santana tabs

The Game Of Love guitar tab

Game of love (solo)


sanTana



TRANSCRIBED BY RUDY GUZMAN


guzman_84@hotmail.com


intro/solo

e:-7-7h10-10-10-10-10-10-10/12-9--5h7-5-7-5-7----------------7---------------------------|
B:-------------------------------------------------7-7-7-7-7--10--7h10-7h10-7h10-7h10-10-|
G:---------------------------------------------7h9---------------------------------------|
D:---------------------------------------------------------------------------------------|
A:---------------------------------------------------------------------------------------|
E:---------------------------------------------------------------------------------------|


e:--7-10-10-10-10-10-10-12-14-14-12p10h12p10-|
B:-------------------------------------------|
G:-------------------------------------------|
D:-------------------------------------------|
A:-------------------------------------------|
E:-------------------------------------------|


solo
e:----12-14-141414141414141414141414-12h141414141414141414----12----12--------------12-15-|
B:-15------------------------------------------------------15----15----15-15-15-15B-------|
G:----------------------------------------------------------------------------------------|
D:----------------------------------------------------------------------------------------|
A:----------------------------------------------------------------------------------------|
E:----------------------------------------------------------------------------------------|

                                                            repeat        repeat      repeat
e:-15--14---------------------------7-7--10-10--12-12--14-|----14-17p14-|-17p15p14-|17B-17B|
B:--------15----------------------7-----------------------|-15----------|----------|-------|
G:--------------9p7-----------7h9-------------------------|-------------|----------|-------|
D:------------------9p7---7h9-----------------------------|-------------|----------|-------|
A:----------------------9---------------------------------|-------------|----------|-------|
E:--------------------------------------------------------|-------------|----------|-------|


e:-17p14-17p14----14-17p14-17p14-----------------------------------------------------------|
B:-------------17----------------17-14----14-17---17-14~~~~----------------------14-14--17-|
G:-------------------------------------16--------------------16-14~~~--16--16-16-----------|
D:-----------------------------------------------------------------------------------------|
A:-----------------------------------------------------------------------------------------|
E:-----------------------------------------------------------------------------------------|

                         repeat
e:-------17-19--22-22-|-22p20p19-|-22B--19~~~~--19-19B--22-19~~~--17p14--17p14-------------|
B:-17/19--------------|----------|----------------------------------------------17p14--17~~|
G:--------------------|----------|---------------------------------------------------------|
D:--------------------|----------|---------------------------------------------------------|
A:--------------------|----------|---------------------------------------------------------|
E:--------------------|----------|---------------------------------------------------------|


:-----------------|
:-(17~~)p14~~~~---|
:-----------------|
:-----------------|
:-----------------|
:-----------------|
  development and support by
dmitry ivanov