rock
 
|tablatures   |lyrics   |discussion forums   |more tabs @ XGuitar.com

Santana tabs

The Game Of Love bass tab

Santana/Michelle Branch - The Game Of Love
Submitted By: gary1046
Album:Shaman
Tabbed By:Gary Hricewich
E-mail:snapper2001@msn.com


Intro/No Bass      Main
G----------------|----------------|
D----------------|---9--------7---|
A----------------|-7---7----5---5-|
E----------------|----------------|


Main Variation
G-----------------------------------|
D-----9------------7----------------|
A---7----9-7-----5----7-5-----0-3-5-|
E-----------------------------------|


     Bridge                                                             2x
G---|------------|-----------|-------------|-------------------------------|-|
D---|*-----------|-----------|-------------|------------------------------*|-|
A---|*-0-5-6-7-7-|-0-7-8-9-9-|-0-8-9-10-10-|-0-10-11-12-12-12-12-12-12-12-*|-|
E---|------------|-----------|-------------|-------------------------------|-|


 Main Variation
G-------9-------------7-----|
D-----9---9---------7---7---|
A---7-------7-----5-------5-|
E---------------------------|
  development and support by
dmitry ivanov