rock
 
|tablatures   |lyrics   |discussion forums   |more tabs @ XGuitar.com

Santana tabs

Primavera bass tab

SANTANA  -  Primavera  basstab

TablEdited by Jan.Bjorklund
Tuning : E A D G 	Time Signature: 4/4

  |       |       |       |        |       |       |       |
|0-------------------------------|----------------------------0---|
|--------------------------------|--------------------------------|
|----------------------------3---|--------------------------------|
|--------------------------------|--------------------------------|

  |       |       |       |        |       |       |       |
|--------------------------------|------------------------2-------|
|------------------------1---0---|--------------------------------|
|3-------------------------------|--------------------------------|
|--------------------------------|--------------------------------|

  |       |       |       |        |       |       |       |
|0-------------------------------|----------------------------0---|
|--------------------------------|--------------------------------|
|----------------------------3---|--------------------------------|
|--------------------------------|--------------------------------|

  |       |       |       |        |       |       |       |
|--------------------------------|--------------------------------|
|------------------------1---0---|--------------------------------|
|3-------------------------------|--------------------------------|
|--------------------------------|--------------------------------|

  |       |       |       |        |       |       |       |
|0-------------------------------|----------------------------0---|
|--------------------------------|--------------------------------|
|----------------------------3---|--------------------------------|
|--------------------------------|--------------------------------|

  |       |       |       |        |       |       |       |
|--------------------------------|--------------------------------|
|------------------------1---0---|----------------------------0---|
|3-------------------------------|--------------------------------|
|--------------------------------|--------------------------------|

  |       |       |       |        |       |       |       |
|0-------------------------------|----------------------------0---|
|--------------------------------|--------------------------------|
|----------------------------3---|--------------------------------|
|--------------------------------|--------------------------------|

  |       |       |       |        |       |       |       |
|--------------------------------|--------------------------------|
|------------------------1---0---|------------0---0---------------|
|3-------------------------------|--------------------3---1---0---|
|--------------------------------|--------------------------------|

  |       |       |       |        |       |       |       |
|--------------------------------|--------------------------------|
|----------------0---------------|--------------------------------|
|--------------------1-------3---|----------------1-------3---3---|
|3-----------3-------------------|------------3-------3-----------|

  |       |       |       |        |       |       |       |
|----------------0---------------|--------------------------------|
|----------------------------0---|--------------------0---0---0---|
|3-----------3-------3-----------|------------0---3---------------|
|--------------------------------|--------------------------------|

  |       |       |       |        |       |       |       |
|--------------------------------|--------------------------------|
|----------------0---------------|--------------------------------|
|--------------------1-------3---|----------------1-------3---3---|
|3-----------3-------------------|------------3-------3-----------|

  |       |       |       |        |       |       |       |
|----------------0---------------|--------------------------------|
|----------------------------0---|--------------------0---0---0---|
|3-----------3-------3-----------|------------0---3---------------|
|--------------------------------|--------------------------------|

  |       |       |       |        |       |       |       |
|--------------------------------|--------------------------------|
|----------------0---------------|--------------------------------|
|--------------------1-------3---|----------------------------1---|
|3-----------3-------------------|------------3---3---------------|

  |       |       |       |        |       |       |       |
|------------0---0---------------|--------------------------------|
|----------------------------0---|------------------------0---0---|
|3-------------------------------|------------0---3---------------|
|--------------------------------|--------------------2-----------|

  |       |       |       |        |       |       |       |
|--------------------------------|------------0---0-------5-------|
|--------------------------------|--------------------------------|
|--------------------1-------3---|----------------------------1---|
|3-----------------------3-------|--------------------------------|

  |       |       |       |        |       |       |       |
|--------------------------------|--------------------------------|
|----------------------------0---|------------------------0---0---|
|3-------------------------------|------------0---3---------------|
|------------3---3---------------|--------------------2-----------|

  |       |       |       |        |       |       |       |
|--------------------------------|------------0---0---------------|
|----------------0---------------|--------------------------------|
|--------------------1-------3---|----------------------------1---|
|3-----------3-------------------|------------------------3-------|

  |       |       |       |        |       |       |       |
|--------------------------------|--------------------------------|
|----------------------------0---|------------0---0---------------|
|3-------------------------------|--------------------------------|
|------------3---3---------------|------------------------1-------|

  |       |       |       |        |       |       |       |
|--------------------------------|------------0---0---------------|
|----------------0---------------|--------------------------------|
|--------------------1-------3---|----------------------------1---|
|3-----------3-------------------|------------------------3-------|

  |       |       |       |        |       |       |       |
|--------------------------------|--------------------------------|
|----------------------------0---|------------0---0---------------|
|3-------------------------------|--------------------------------|
|------------3---3---------------|------------------------1-------|

  |       |       |       |        |       |       |       |
|--------------------------------|--------------------------------|
|----------------0---------------|--------------------------------|
|--------------------1-------3---|----------------------------1---|
|3-----------3-------------------|------------3---3---------------|

  |       |       |       |        |       |       |       |
|------------0---0---------------|--------------------------------|
|----------------------------0---|------------------------0---0---|
|3-------------------------------|------------0---3---------------|
|--------------------------------|--------------------2-----------|

  |       |       |       |        |       |       |       |
|--------------------------------|------------0---0-------5-------|
|--------------------------------|--------------------------------|
|--------------------1-------3---|----------------------------1---|
|3-----------------------3-------|--------------------------------|

  |       |       |       |        |       |       |       |
|--------------------------------|--------------------------------|
|----------------------------0---|------------------------0---0---|
|3-------------------------------|------------0---3---------------|
|------------3---3---------------|--------------------2-----------|

  |       |       |       |        |       |       |       |
|--------------------------------|--------------------------------|
|----------------0---------------|--------------------------------|
|--------------------1-------3---|----------------1-------3---3---|
|3-----------3-------------------|------------3-------3-----------|

  |       |       |       |        |       |       |       |
|----------------0---------------|--------------------------------|
|----------------------------0---|--------------------------------|
|3-----------3-------3-----------|--------------------------------|
|--------------------------------|------------0---1-------2-------|

  |       |       |       |        |       |       |       |
|--------------------------------|--------------------------------|
|----------------0---------------|--------------------------------|
|--------------------1-------3---|----------------1-------3---3---|
|3-----------3-------------------|------------3-------3-----------|

  |       |       |       |        |       |       |       |
|----------------0---------------|--------------------------------|
|----------------------------0---|--------------------0---0---0---|
|3-----------3-------3-----------|------------0---3---------------|
|--------------------------------|--------------------------------|

  |       |       |       |        |       |       |       |
|--------------------------------|--------------------------------|
|----------------0---------------|--------------------------------|
|--------------------1-------3---|----------------1-------3---3---|
|3-----------3-------------------|------------3-------3-----------|

  |       |       |       |        |       |       |       |
|----------------0---------------|--------------------------------|
|----------------------------0---|--------------------0---0---0---|
|3-----------3-------3-----------|------------0---3---------------|
|--------------------------------|--------------------------------|

  |       |       |       |        |       |       |       |
|--------------------------------|--------------------------------|
|----------------0---------------|--------------------------------|
|--------------------1-------3---|----------------1-------3---3---|
|3-----------3-------------------|------------3-------3-----------|

  |       |       |       |        |       |       |       |
|----------------0---------------|--------------------------------|
|----------------------------0---|--------------------0---0---0---|
|3-----------3-------3-----------|------------0---3---------------|
|--------------------------------|--------------------------------|

  |       |       |       |        |       |       |       |
|--------------------------------|------------0---0---------------|
|----------------0---------------|--------------------------------|
|--------------------1-------3---|----------------------------1---|
|3-----------3-------------------|------------------------3-------|

  |       |       |       |        |       |       |       |
|--------------------------------|--------------------------------|
|----------------------------0---|------------0---0---------------|
|3-------------------------------|--------------------------------|
|------------3---3---------------|------------------------1-------|

  |       |       |       |        |       |       |       |
|--------------------------------|------------0---0---------------|
|----------------0---------------|--------------------------------|
|--------------------1-------3---|----------------------------1---|
|3-----------3-------------------|------------------------3-------|

  |       |       |       |        |       |       |       |
|--------------------------------|--------------------------------|
|----------------------------0---|------------0---0---------------|
|3-------------------------------|--------------------------------|
|------------3---3---------------|------------------------1-------|

  |       |       |       |        |       |       |       |
|--------------------------------|--------------------------------|
|----------------0---------------|--------------------------------|
|--------------------1-------3---|----------------------------1---|
|3-----------3-------------------|------------3---3---------------|

  |       |       |       |        |       |       |       |
|------------0---0---------------|--------------------------------|
|----------------------------0---|------------------------0---0---|
|3-------------------------------|------------0---3---------------|
|--------------------------------|--------------------2-----------|

  |       |       |       |        |       |       |       |
|--------------------------------|------------0---0-------5-------|
|--------------------------------|--------------------------------|
|--------------------1-------3---|----------------------------1---|
|3-----------------------3-------|--------------------------------|

  |       |       |       |        |       |       |       |
|--------------------------------|--------------------------------|
|----------------------------0---|------------------------0---0---|
|3-------------------------------|------------0---3---------------|
|------------3---3---------------|--------------------2-----------|

  |       |       |       |        |       |       |       |
|--------------------------------|--------------------------------|
|----------------0---------------|--------------------------------|
|--------------------1-------3---|----------------1-------3---3---|
|3-----------3-------------------|------------3-------3-----------|

  |       |       |       |        |       |       |       |
|----------------0---------------|--------------------------------|
|----------------------------0---|--------------------0---0---0---|
|3-----------3-------3-----------|------------0---3---------------|
|--------------------------------|--------------------------------|

  |       |       |       |        |       |       |       |
|--------------------------------|--------------------------------|
|----------------0---------------|--------------------------------|
|--------------------1-------3---|----------------1-------3---3---|
|3-----------3-------------------|------------3-------3-----------|

  |       |       |       |        |       |       |       |
|----------------0---------------|--------------------------------|
|----------------------------0---|--------------------0---0---0---|
|3-----------3-------3-----------|------------0---3---------------|
|--------------------------------|--------------------------------|

  |       |       |       |        |       |       |       |
|--------------------------------|--------------------------------|
|----------------0---------------|--------------------------------|
|--------------------1-------3---|----------------1-------3---3---|
|3-----------3-------------------|------------3-------3-----------|

  |       |       |       |        |       |       |       |
|----------------0---------------|--------------------------------|
|----------------------------0---|--------------------------------|
|3-----------3-------3-----------|--------------------------------|
|--------------------------------|--------0---0---1---1---2---2---|

  |       |       |       |        |       |       |       |
|--------------------------------|--------------------------------|
|----------------0---------------|--------------------------------|
|--------------------1-------3---|----------------1-------3---3---|
|3-----------3-------------------|------------3-------3-----------|

  |       |       |       |        |       |       |       |
|----------------0---------------|--------------------------------|
|----------------------------0---|----0---0-------0---0-----------|
|3-----------3-----------3-------|--------------------------------|
|--------------------------------|----------------------------3---|

  |       |       |       |        |       |       |       |
|--------------------------------|--------------------------------|
|----------------0---------------|--------------------------------|
|--------------------1-------3---|----------------1-------3---3---|
|------------3-------------------|------------3-------3-----------|

  |       |       |       |        |       |       |       |
|----------------0---------------|--------------------------------|
|----------------------------0---|--------1---1-------------------|
|3-----------3-------3-----------|--------------------------------|
|--------------------------------|----------------0---0---1---2---|

  |       |       |       |        |       |       |       |
|--------------------------------|--------------------------------|
|----------------0---------------|--------------------------------|
|--------------------1-------3---|----------------1-------3---3---|
|3-----------3-------------------|------------3-------3-----------|

  |       |       |       |        |       |       |       |
|----------------0---------------|--------------------------------|
|----------------------------0---|----0---------------------------|
|3-----------3-------3-----------|--------3---3---1-----------0---|
|--------------------------------|--------------------1---2-------|

  |       |       |       |        |       |       |       |
|--------------------------------|--------------------------------|
|----------------0---------------|--------------------------------|
|--------------------1-------3---|----------------1-------3---3---|
|3-----------3-------------------|------------3-------3-----------|

  |       |       |       |        |       |       |       |
|----------------0---------------|--------------------------------|
|----------------------------0---|--------------------0---0---0---|
|3-----------3-------3-----------|------------0---3---------------|
|--------------------------------|--------------------------------|

  |       |       |       |        |       |       |       |
|--------------------------------|--------------------------------|
|----------------0---------------|--------------------------------|
|--------------------1-------3---|----------------1-------3---3---|
|3-----------3-------------------|------------3-------3-----------|

  |       |       |       |        |       |       |       |
|----------------0---------------|--------------------------------|
|----------------------------0---|----0---------------------------|
|3-----------3-------3-----------|--------3---3---1---1---0---0---|
|--------------------------------|--------------------------------|

  |       |       |       |        |       |       |       |
|--------------------------------|--------------------------------|
|----------------0---------------|--------------------------------|
|--------------------1-------3---|----------------1-------3---3---|
|3-----------3-------------------|------------3-------3-----------|

  |       |       |       |        |       |       |       |
|----------------0---------------|--------------------------------|
|----------------------------0---|--------------------0---0---0---|
|3-----------3-------3-----------|------------0---3---------------|
|--------------------------------|--------------------------------|

  |       |       |       |        |       |       |       |
|--------------------------------|--------------------------------|
|----------------0---------------|--------------------------------|
|--------------------1-------3---|----------------1-------3---3---|
|3-----------3-------------------|------------3-------3-----------|

  |       |       |       |        |       |       |       |
|----------------0---------------|--------------------------------|
|----------------------------0---|----0---0---0---0---------------|
|3-----------3-------3-----------|--------------------------------|
|--------------------------------|------------------------1---2---|

  |       |       |       |        |       |       |       |
|0-------------------------------|--------------------------------|
|--------------------------------|--------------------------------|
|--------------------------------|--------------------------------|
|--------------------------------|--------------------------------|

  |       |       |       |        |       |       |       |
|--------------------------------|--------------------------------|
|--------------------------------|--------------------------------|
|--------------------------------|--------------------------------|
|--------------------------------|--------------------------------|

  |       |       |       |        |       |       |       |
|0-----------------------0-------|--------------------------------|
|--------------------0-----------|--------------------------------|
|----------------------------3---|--------------------------------|
|--------------------------------|--------------------------------|

  |       |       |       |        |       |       |       |
|--------------------------------|--------------------------------|
|----------------------------0---|--------------------------------|
|3-------------------------------|--------------------------------|
|--------------------------------|------------------------1---2---|

  |       |       |       |        |       |       |       |
|--------------------------------|--------------------------------|
|--------------------0-----------|--------------------------------|
|------------------------1---3---|------------------------1-------|
|3-------------------------------|--------------------3-------3---|

  |       |       |       |        |       |       |       |
|--------------------------------|--------------------------------|
|----------------------------0---|--------------------------------|
|3-----------------------3-------|--------------------------------|
|--------------------3-----------|----------------0-------1---2---|

  |       |       |       |        |       |       |       |
|--------------------------------|--------------------------------|
|--------------------0-----------|--------------------------------|
|------------------------1---3---|------------------------1-------|
|3-------------------------------|--------------------3-------3---|

  |       |       |       |        |       |       |       |
|--------------------------------|--------------------------------|
|--------------------------------|----0-----0-----0-----0---------|
|3-------------------------------|--------------------------------|
|--------------------------------|----------------------------3---|

  |       |       |       |        |       |       |       |
|--------------------------------|--------------------------------|
|----------------0---------------|--------------------------------|
|--------------------1-------3---|----------------1-------3---3---|
|------------3-------------------|------------3-------3-----------|

  |       |       |       |        |       |       |       |
|----------------0---------------|--------------------------------|
|----------------------------0---|--------1---1-------------------|
|3-----------3-------3-----------|--------------------------------|
|--------------------------------|----------------0---0---1---2---|

  |       |       |       |        |       |       |       |
|--------------------------------|--------------------------------|
|----------------0---------------|--------------------------------|
|--------------------1-------3---|----------------1-------3---3---|
|3-----------3-------------------|------------3-------3-----------|

  |       |       |       |        |       |       |       |
|----------------0---------------|--------------------------------|
|----------------------------0---|----0---------------------------|
|3-----------3-------3-----------|--------3---3---1-----------0---|
|--------------------------------|--------------------1---2-------|

  |       |       |       |        |       |       |       |
|--------------------------------|--------------------------------|
|----------------0---------------|--------------------------------|
|--------------------1-------3---|----------------1-------3---3---|
|3-----------3-------------------|------------3-------3-----------|

  |       |       |       |        |       |       |       |
|----------------0---------------|--------------------------------|
|----------------------------0---|--------------------0---0---0---|
|3-----------3-------3-----------|------------0---3---------------|
|--------------------------------|--------------------------------|

  |       |       |       |        |       |       |       |
|--------------------------------|--------------------------------|
|----------------0---------------|--------------------------------|
|--------------------1-------3---|----------------1-------3---3---|
|3-----------3-------------------|------------3-------3-----------|

  |       |       |       |        |       |       |       |
|----------------0---------------|--------------------------------|
|----------------------------0---|----0---------------------------|
|3-----------3-------3-----------|--------3---3---1---1---0---0---|
|--------------------------------|--------------------------------|

  |       |       |       |        |       |       |       |
|--------------------------------|--------------------------------|
|----------------0---------------|--------------------------------|
|--------------------1-------3---|----------------1-------3---3---|
|3-----------3-------------------|------------3-------3-----------|

  |       |       |       |        |       |       |       |
|----------------0---------------|--------------------------------|
|----------------------------0---|--------------------0---0---0---|
|3-----------3-------3-----------|------------0---3---------------|
|--------------------------------|--------------------------------|

  |       |       |       |        |       |       |       |
|--------------------------------|--------------------------------|
|----------------0---------------|--------------------------------|
|--------------------1-------3---|----------------1-------3---3---|
|3-----------3-------------------|------------3-------3-----------|

  |       |       |       |        |       |       |       |
|----------------0---------------|--------------------------------|
|----------------------------0---|----0-------1-------------------|
|3-----------3-------3-----------|----------------------------0---|
|--------------------------------|----------------0---1---2-------|

  |       |       |       |        |       |       |       |
|--------------------------------|--------------------------------|
|----------------0---------------|--------------------------------|
|--------------------1-------3---|----------------1-------3---3---|
|3-----------3-------------------|------------3-------3-----------|

  |       |       |       |        |       |       |       |
|----------------0---------------|--------------------------------|
|----------------------------0---|--------1---1-------------------|
|3-----------3-------3-----------|--------------------------------|
|--------------------------------|----------------0---0---1---2---|

  |       |       |       |        |       |       |       |
|--------------------------------|--------------------------------|
|----------------0---------------|--------------------------------|
|--------------------1-------3---|----------------1-------3---3---|
|3-----------3-------------------|------------3-------3-----------|

  |       |       |       |        |       |       |       |
|----------------0---------------|--------------------------------|
|----------------------------0---|----0---------------------------|
|3-----------3-------3-----------|--------3---3---1-----------0---|
|--------------------------------|--------------------1---2-------|

  |       |       |       |        |       |       |       |
|--------------------------------|--------------------------------|
|----------------0---------------|--------------------------------|
|--------------------1-------3---|----------------1-------3---3---|
|3-----------3-------------------|------------3-------3-----------|

  |       |       |       |        |       |       |       |
|----------------0---------------|--------------------------------|
|----------------------------0---|--------------------0---0---0---|
|3-----------3-------3-----------|------------0---3---------------|
|--------------------------------|--------------------------------|

  |       |       |       |        |       |       |       |
|--------------------------------|--------------------------------|
|----------------0---------------|--------------------------------|
|--------------------1-------3---|----------------1-------3---3---|
|3-----------3-------------------|------------3-------3-----------|

  |       |       |       |        |       |       |       |
|----------------0---------------|--------------------------------|
|----------------------------0---|----0---------------------------|
|3-----------3-------3-----------|--------3---3---1---1---0---0---|
|--------------------------------|--------------------------------|

  |       |       |       |        |       |       |       |
|--------------------------------|--------------------------------|
|----------------0---------------|--------------------------------|
|--------------------1-------3---|----------------1-------3---3---|
|3-----------3-------------------|------------3-------3-----------|

  |       |       |       |        |       |       |       |
|----------------0---------------|--------------------------------|
|----------------------------0---|--------------------0---0---0---|
|3-----------3-------3-----------|------------0---3---------------|
|--------------------------------|--------------------------------|

  |       |       |       |        |       |       |       |
|--------------------------------|--------------------------------|
|----------------0---------------|--------------------------------|
|--------------------1-------3---|----------------1-------3---3---|
|3-----------3-------------------|------------3-------3-----------|

  |       |       |       |        |       |       |       |
|----------------0---------------|--------------------------------|
|----------------------------0---|----0---0---0---0---------------|
|3-----------3-------3-----------|--------------------------------|
|--------------------------------|------------------------1---2---|

  |       |       |       |        |       |       |       |
|--------------------------------|--------------------------------|
|----------------0---------------|--------------------------------|
|--------------------1-------3---|----------------1-------3---3---|
|3-----------3-------------------|------------3-------3-----------|

  |       |       |       |        |       |       |       |
|----------------0---------------|--------------------------------|
|----------------------------0---|--------------------0---0---0---|
|3-----------3-------3-----------|------------0---3---------------|
|--------------------------------|--------------------------------|

  |       |       |       |        |       |       |       |
|--------------------------------|--------------------------------|
|----------------0---------------|--------------------------------|
|--------------------1-------3---|----------------1-------3---3---|
|3-----------3-------------------|------------3-------3-----------|

  |       |       |       |        |       |       |       |
|----------------0---------------|--------------------------------|
|----------------------------0---|----0-------1-------------------|
|3-----------3-------3-----------|----------------------------0---|
|--------------------------------|----------------0---1---2-------|

  |       |       |       |        |       |       |       |
|--------------------------------|--------------------------------|
|----------------0---------------|--------------------------------|
|--------------------1-------3---|----------------1-------3---3---|
|3-----------3-------------------|------------3-------3-----------|

  |       |       |       |        |       |       |       |
|----------------0---------------|--------------------------------|
|----------------------------0---|--------1---1-------------------|
|3-----------3-------3-----------|--------------------------------|
|--------------------------------|----------------0---0---1---2---|

  |       |       |       |        |       |       |       |
|--------------------------------|--------------------------------|
|----------------0---------------|--------------------------------|
|--------------------1-------3---|----------------1-------3---3---|
|3-----------3-------------------|------------3-------3-----------|

  |       |       |       |        |       |       |       |
|----------------0---------------|--------------------------------|
|----------------------------0---|----0---------------------------|
|3-----------3-------3-----------|--------3---3---1-----------0---|
|--------------------------------|--------------------1---2-------|

  |       |       |       |        |       |       |       |
|--------------------------------|--------------------------------|
|----------------0---------------|--------------------------------|
|--------------------1-------3---|----------------1-------3---3---|
|3-----------3-------------------|------------3-------3-----------|

  |       |       |       |        |       |       |       |
|----------------0---------------|--------------------------------|
|----------------------------0---|--------------------0---0---0---|
|3-----------3-------3-----------|------------0---3---------------|
|--------------------------------|--------------------------------|

  |       |       |       |        |       |       |       |
|--------------------------------|--------------------------------|
|----------------0---------------|--------------------------------|
|--------------------1-------3---|----------------1-------3---3---|
|3-----------3-------------------|------------3-------3-----------|

  |       |       |       |        |       |       |       |
|----------------0---------------|--------------------------------|
|----------------------------0---|----0---------------------------|
|3-----------3-------3-----------|--------3---3---1---1---0---0---|
|--------------------------------|--------------------------------|

  |       |       |       |        |       |       |       |
|--------------------------------|--------------------------------|
|--------------------------------|--------------------------------|
|--------------------------------|--------------------------------|
|3-------------------------------|--------------------------------|



Created with TablEdit http://www.tabledit.com/
  development and support by
dmitry ivanov