rock
 
|tablatures   |lyrics   |discussion forums   |more tabs @ XGuitar.com

Santana tabs

Mothers Daughter guitar tab

Mother's Daughter-Santana
Written by: Gregg Rolie(1970)         tab by david2077@hotmail.com
	*=[2-String bend]: bend the high string up 1/2 and the low string 
			a full bend at the same time.
trl~~ = Trill  	 ful = Full Bend   ^````^ = Hold Bend   Pb = Prebend
			
Eb/F	Bb/F	   	   F  	Eb/F  Bb/F	  F
	     *see note*				  ful		    ful
|-------|-----------------|--|--|----|-----------|-------|---------|------|
|---1---|---3^(3)^(3)^1/2-|--|--|----|-3---------|-1-----|---------|1-----|
|---2-2-|---3^(3)^(3)^full|--|--|----|-3--5^3^2^3|-3^````|````^(3)-|3^(3)-|
|-3-3---|-3---------------|--|--|3---|-3---------|-------|---------|------|
|-------|-----------------|--|--|3---|-----------|-------|---------|------|
|-------|-----------------|--|--|1---|-----------|-------|---------|------|
    ful   ful	 trl~~~					     full
|--|-----|-------------|-----------------|---------3-------------|-------|
|--|-8---|-6----6(86)^8^6----------------|----1^3-4---4^3^1---8--|-----11|
|--|10^--|-8^----------|--8^7^8^7^5--5-3-|2^3--------------2-10^-|-------|
|--|-----|-------------|-----------------|-----------------------|-------|
|--|-----|-------------|-----------------|-----------------------|-------|
|--|-----|-------------|-----------------|-----------------------|-------|
  ful    ful		 full.....      ful	       ful  ful   trl~~~~~~
|-------------|--------1-----|------------------------|3----|1----1(31)^3-|
|-11-----10---|--(10)\---4^`````^(4)-1----------------|6^---|4^-----------|
|-13^----12^--|--(12)\-------|----------3^(3)^1-------|-----|-------------|
|-------------|--------------|------------------3^1---|-----|-------------|
|-------------|--------------|----------------------3-|-----|-------------|
|-------------|--------------|------------------------|-----|-------------|
				       ful	   ful   ful 	      ful
|1--------------------------|3-------------------|-----------|------------|
|--4-3^4^3^1---1-------1^3^4|---4^3^1------------|--8----11--|--------10--|
|-------------3--3^2^3------|----------3^(3)^1---|-10^---13^-|--------12^-|
|---------------------------|------------------3-|-----------|------------|
|---------------------------|--------------------|-----------|------------|
|---------------------------|--------------------|-----------|------------|
	    full....	 ful	       
|--------1---------------------------|  
|--(10)\----4^````^(4)^1-----------1-| 
|--(12)\-----------------3^(3)^1-1---|		
|--------------------------------3---|  
|------------------------------------|      VERSE:
|------------------------------------|
[......With Fill 1, 2nd Time......]
[......With Fill 4, 3rd Time......]
  ful~~~				
|---------------|-----------------|------------------|--------------|
|-4^----x-------|-----------------|------------------|------8--10\--|
|---------------|----8------8-8-8-|----------------3-|------8--10\--|
|---------------|----6------8-8-8-|-----------3--5---|------8--10\--|
|----------3-3-3/6--------6---6-6-|----1-1/5---------|----6-6---8\--|
|----------1-1--|-----------------|------------------|--------------|

		    [..With Fill 2.]
|-------------------|----------6---|----------------|---------------|
|-------------------|--------8-8---|----------------|-------8--10\--|
|-------------------|--8-----8-----|--------------3-|-3-----8--10\--|
|-7-----7^8^7-7-----|--8-----8-----|3--------3--5---|-------8--10\--|
|-8---8---------8-8-|6-----6-------|1---1/5---------|-----6-6---8\--|
|-------------------|--------------|----------------|---------------|

		      [.With Fill 2..]
|---------------------|----------6---|---------------|---------------|
|---------------------|--------8-8---|---------------|-------8--10\--|
|--2------------------|--8-----8-----|-------------3-|-3-----8--10\--|
|--3------7^8^7-7-----|--8-----8-----|--------3--5---|-------8--10\--|
|--3----8---------8-8-|6-----6-------|---1/5---------|-----6-6---8\--|
|-(1)-----------------|--------------|---------------|---------------|
						END VERSE:(GO TO INTERLUDE)
[...With Fill 3....] [...With Fill 2...]		     ful   ful	
|-------------------|-11-----1111---11--|---------------|----------3---|
|-------------------|-11-----111111-11--|---------------|----------6^--|
|-------2^3^2-------|-----12-121212-12--|-------------3-|--5/7^(7)-----|
|-----3------3--/13-|-----13-1313---13--|3-------3--5---|--------------|
|-3-------------/13-|-------------------|1---1/5--------|--------------|
|-1-------------/11-|-------------------|---------------|--------------|
FILLS:
	[..........Fill 1.............]    [.......Fill 2........]
	|----------|-11-----------11--|    |---11-----------11---| 
	|----------|-11-----11-11-11--|    |---11--------11-11---| 
	|-----2----|-12-----12-12-12--|    |---12--------12-12---| 
	|---3-3-3--|-13-----13-13-----|    |---13---(13)---------| 
	|---3------|------------------|    |---------------------|
	|---1------|------x-----------|    |---------------------|

	[...Fill 3...]	  [..........Fill 4...........]
	|--------1---|    |-----------------|---------|
	|--------1---|    |-----------------|--4--4---|
	|--2--2--2---|    |-------2^3^2-2---|--3--3---|
	|--3--3--3---|    |--3----3---------|--5--5---|
	|--3--3------|    |--3--------------|---------|
	|------------|    |--1--------------|---------|
1st INTERLUDE:
	  Full....				    ful	     ful....
|-(3)------------------|--------------------3|--------------------|
|-(6)-----4^````^(4)^3-|4^3^1--1-------1^3^4-|-4^3^1----------6---|
|----------------------|------3---3^2^3------|------3^(3)^2---8^``|
|----------------------|---------------------|--------------------|
|----------------------|---------------------|--------------------|
|----------------------|---------------------|--------------------|
	   ful   ful 	ful			 ful
|-------------------|-------|-------1-1-|1------------------|
|``(6)(6)/8-----11--|---10--|--(10)\----|--4-4-4-4^(4)^1----|
|--(8)(8)/10^---13^-|---12^-|--(12)\----|---------------/3--|
|-------------------|-------|-----------|-----------------3-|
|-------------------|-------|-----------|-------------------|
|-------------------|-------|-----------|-------------------|

2nd INTERLUDE:
	  ful				 
|-(3)-----|1----1^3-|-3-1------------------|-----1-1-1-1^3^1-------|
|-(6)-----|4^-------|-----4-4-4^3-1-1-1^3-3|3-3^4-----------4^3^1--|
|---------|---------|----------------------|-----------------------|
|---------|---------|----------------------|-----------------------|
|---------|---------|----------------------|-----------------------|
|---------|---------|----------------------|-----------------------|
 ful   ful	 ful		   full...
|3-----|6----6-6-5--|--(5)--(5)\-1----|--------------------|
|6^----|9^-------8^-|--(8)--(8)\---4^```^(4)-1-4-1---------|
|------|------------|-----------------|-------------/2-----|
|------|------------|-----------------|----------------3^1-|
|------|------------|-----------------|--------------------|
|------|------------|-----------------|--------------------|

3rd INTERLUDE:
	  ful	       trl~~~		    ful
|-(3)-----|1----1^3-3|-(1 3)^1--------------|-----1-----3-----1-------|
|-(6)-----|4^--------|---------4^3-4^3-1--1-|---1---4^1---4^1---------|
|---------|----------|-------------------3--|3^-----------------4^3^1-|
|---------|----------|----------------------|-------------------------|
|---------|----------|----------------------|-------------------------|
|---------|----------|----------------------|-------------------------|
ful	ful   ful		 ful ful	     1/4  END INTERLUDE:
|1------|6-----5---|--(5)--(5)\1------|-----------1--------| 
|4^-----|9^----8^--|--(8)--(8)\--4^(4)^(4)--1-1--4---------|
|-------|----------|------------------|--------------1^----|
|-------|----------|------------------|-----------------3--|
|-------|----------|------------------|--------------------|
|-------|----------|------------------|--------------------|
OUTRO:
 ful   ful   ful     ful
|3----|6-----8--|----10^-|-(10)\-------|-----------|---------------|
|6^---|9^---11^-|--------|-------------|-----------|---------------|
|-----|---------|--------|-------------|-----------|---------------|
|-----|---------|--------|-------------|--5-5-3---5|---5-5-5-------|
|-----|---------|--------|-------------|--------5-5|---5-5-5-------|
|-----|---------|--------|-------0-1-2-|3---------3|-3-3-3-3-3-4-5-|

|------------|------------|----------|------------------|-------||-------|
|------------|------------|----------|------------------|-------||-------|
|------------|------------|----------|------------------|-------||-------|
|---8-8-6---8|---8-8-8--10|-(10)--10-|---10-10-10-10-11-|-12\---||-0-----|
|---------8-8|---8-8-8--10|-(10)--10-|---10-10-10-10-11-|-12\---||-------|
|6----------6|-6-6-6-6---8|-(8)----8-|--8-8--8--8--8--9-|-10\---||-------|
						OUTRO SOLO:
    ful~~~~ ful~~~~ ful~~~~ ful~~~~ ful	    	   ~~~~~~~~~~    
|-10------10----|-10------10-----|10----------3||-------------|
|---13^-----13^-|---13^-----13^--|--13^-----3--||-/8--8--8--8-|
|---------------|----------------|---------4---||-------------|
|---------------|----------------|-------------||-------------|
|---------------|----------------|-------------||-------------|
|---------------|----------------|-------------||-------------|
       ~~~~ ful~~~ ful~~~      ~~~      ful
|-6^3--3------|---|------7^3---3--|3--------3--------3-------|-15--15--15-|
|-----------6^|---|6^--------6----|--6^3---3--6^3--3---------|---18--18---|
|-------------|---|---------------|-----5^-------4-----4-(4)/|------------|
|-------------|---|---------------|--------------------------|------------|
|-------------|---|---------------|--------------------------|------------|
|-------------|---|---------------|--------------------------|------------|
  ful       ful		     ful
|--------------------15--------------|------------------------|
|18^(18)^15-----15-15--18^15---------|------18-------18-------|
|----------17^--------------17^--16--|18/19----18/19----18/19-|
|------------------------------------|------------------------|
|------------------------------------|------------------------|
|------------------------------------|------------------------|
	   ful    1/2
|-----------------------|-------------------------------|-----------------|
|18-----18--------------|-1212121212/1212121212/12121212|12/1212121212-12\|
|--18/19--17^(17)15^----|-1212121212/1212121212/12121212|12/1212121212-12\|
|--------------------17-|-1212121212/1212121212/12121212|12/1212121212-12\|
|-----------------------|-------------------------------|-----------------|
|-----------------------|-------------------------------|-----------------|
       1/4
|----------------------|------------------------|-------------------------|
|----------------------|-33333------------------|3-3-3-3------------------|
|----5-3^--------------|-44444------------------|4-4-4-4------------------|
|5-5-5----5-3-3-3-3--5-|-55555-3-5--3-3-3-3-3-5-|5-5-5-5-3-5-5-5-5-5^3----|
|5-5-------------------|-55555------------------|5-5-5-5---------------3^5|
|3-3-------------------|-33333------------------|3-3-3-3------------------|
	    ful 1/4    trl~~~ trl~~~~ trl~~~~~ trl~~~~ trl~~~~ trl~~~~~~
|----------x---------|--------(35)^3-----------|-------(35)^3--(35)^3---|
|3--333333-x---------|-(35)^3---------(35)^3---|(35)^3------------------|
|4--444444--5^--3^---|-------------------------|------------------------|
|5--555555---------5-|-------------------------|------------------------|
|5--555555-----------|-------------------------|------------------------|
|3--333333-----------|-------------------------|------------------------|
 trl~~~~ trl~~~~~~
|---------------------|/7-777-7--5--x-3--|-/7--77-7--10101010---|
|(34)^3--(34)^3----x/-|/8-888-8--6--x-3--|-/8--88-8---8-8-8-8---|
|---------------------|/7-777-7--5--x-4--|-/7--77-7---7-7-7-7---|
|---------------------|------------------|----------------------|
|---------------------|------------------|----------------------|
|---------------------|------------------|----------------------|

|/7--777-7---5--x-3--|/15-151515/15151515151515-|-/15-1515/15-151515-15-15|
|/8--888-8---6--x-3--|/15-161616/16161616161616-|-/16-1616/16-161616-16-16|
|/7--777-7---5--x-4--|/16-161616/16161616161616-|-/16-1616/16-161616-16-16|
|--------------------|--------------------------|-------------------------|
|--------------------|--------------------------|-------------------------|
|--------------------|--------------------------|-------------------------|
  ful        ful          ful       ful         ful        ful
|-----------------------|----------17^-----15-|------------------|
|18^(18)^15-18^(18)^15--|18^(18)^15-----------|18^(18)^15-18^----|
|-----------------------|---------------------|------------------|
|-----------------------|---------------------|------------------|
|-----------------------|---------------------|------------------|
|-----------------------|---------------------|------------------|
 Pb-ful	       ful     1/2  ful      full..........................
|-------------17^----|20^(21)^------|20^``20```20``|`20```20```20``---|
|-^18^(18)^15--------|--------------|--------------|------------------|
|--------------------|--------------|--------------|------------------|
|--------------------|--------------|--------------|------------------|
|--------------------|--------------|--------------|------------------|
|--------------------|--------------|--------------|------------------|

  development and support by
dmitry ivanov