rock
 
|tablatures   |lyrics   |discussion forums   |more tabs @ XGuitar.com

Santana tabs

Maria Maria bass tab

Song:   Maria Maria	
Artist: Santana	
Album: Supernatural
Tuning: G D A E B
From:   Adam Ellinport (meliquix@aol.com)

Theres two chord changes in this song. So below is the two 
chord patterns if you listen to the music you can get this 
real easy. It's a very easy song. 

1st Pattern
G:|----------|
D:|----------|
A:|----------|
E:|5---5---5-|
B:|--5---5---| 
   1 & 2 & 3  

2nd Pattern
G:|----------|
D:|----------|
A:|----------|
E:|3---3-- 3-|
B:|--3---3---|    
   1 & 2 & 3
  development and support by
dmitry ivanov