rock
 
|tablatures   |lyrics   |discussion forums   |more tabs @ XGuitar.com

Santana tabs

Jin Go Lo Ba guitar tab

Jin Go Lo Ba by Santana


	  Bm
|---------7-|------7----7\\-|-----7---x--7---x--x--x--7--x---7---|
|---------7-|------7----7\\-|-----7---x--7---x--x--x--7--x---7---|
|---------7-|------7----7\\-|-----7---x--7---x--x--x--7--x---7---|
|-----------|--------------|------------------------------------|
|-----------|--------------|------------------------------------|
|-----------|--------------|------------------------------------|


|--7---7--x-7---------7-----|-7-7-7-x-7--7----7--7-------|
|--7---7--x-7---9--x--7-----|-7-7-7-x-7--7----7--7-------|
|--7---7--x-7---9--x--7-----|-7-7-7-x-7--7----7--7-7-7---|
|-------------------------9-|--------------------------7-|
|---------------------------|----------------------------|
|---------------------------|----------------------------|

  Bm		Bm7		    Bm
  Jin - go,___________________________                jin - go ba.
|-7----------7---7----7--7--7--7--|--7---7-7-7-7-7-7\\-----|
|-7----------7--10---10-10-10-10--|--7---7-7-7-7-7-7\\-----|
|-7----------7---7----7--7--7--7--|--7---7-7-7-7-7-7\\-----|
|-9----------9---9----9--9--9--9--|--9---9-9-9-9-9-9\\-----|
|---------------------------------|-----------------------|
|---------------------------------|-----------------------|

						  Lo  ba ba, lo ba ba,...
|---------7-7---------7-7-|---------7-7-x------7----|-------7--
|---------7-7---------7-7-|---------7-7-x-9--x-7----|-------7--
|-7---7---7-7-7---7---7-7-|-7---7---7-7-x-9--x-7----|-7--7--7--
|-9---9-------9---9-------|-9---9-----------------9-|-9--9-----
|-------------------------|-------------------------|----------
|-------------------------|-------------------------|----------

GUITAR SOLO:
      full full-hold-release                   ~~~~~~~~~	     1.5
|----|12^--12^`````|`^12---12^10^12--|10------------|---------------|14^-|
|--12|-------------|-----------------|----10^12-----|--(12)\\------12|----|
|----|-------------|-----------------|--------------|---------------|----|
|----|-------------|-----------------|--------------|---------------|----|
|----|-------------|-----------------|--------------|---------------|----|
|----|-------------|-----------------|--------------|---------------|----|

    	  full	        ~~~~~~~
|-(14)---12^12^10----|----------------|--/9---/9-/9---9-9--|
|-----------------10^|^12------(12)\\--|--------------------|
|--------------------|----------------|--------------------|
|--------------------|----------------|--------------------|
|--------------------|----------------|--------------------|
|--------------------|----------------|--------------------|

|10^9^7-10^9^7-10^9^7-10^9^7-10^9^7-9^10|10^9^7-10^9^7-10^9^7-10^9^7-10^9^7|
|---------------------------------------|----------------------------------|
|---------------------------------------|----------------------------------|
|---------------------------------------|----------------------------------|
|---------------------------------------|----------------------------------|
|---------------------------------------|----------------------------------|

							  1/2
|-9^7----9^7----9^7----9^7----9^7-----|-7-7--------7-----------------|
|------10-----10-----10-----10-----10-|-----10--10---10-7------------|
|-------------------------------------|-------------------9^9^7------|
|-------------------------------------|-------------------------9----|
|-------------------------------------|------------------------------|
|-------------------------------------|------------------------------|


|-10^9^7--------10^9^7--------10^9^7--------9------7---|
|--------10^9^7--------10^9^7--------10^9^7----10------|
|------------------------------------------------------|
|------------------------------------------------------|
|------------------------------------------------------|
|------------------------------------------------------|

	full	   1/2               full        full full full
|----------7------------------------|-------------------------------|
|-10--7------10--7------------------|-----7---7-7-----7---7-----7-7-|
|-------9^---------9^9^7----7---7---|-9^----9-----9^---9^--9^-------|
|-------------------------9---9-----|-------------------------------|
|-----------------------------------|-------------------------------|
|-----------------------------------|-------------------------------|
					 ~~~~~~~~~~~~~~~~~~~~~~~
  full		 full	    full        full-hold........release
|------7----7-7-------7---------------|-------------|--------------------|
|10^-----10-----10^-----10-7----------|-------------|--------------------|
|----------------------------9^9^7----|-9^^^^(9)^^^^|^^^(9)^^^^^9--9^7^9-|
|----------------------------------9--|-------------|--------------------|
|-------------------------------------|-------------|--------------------|
|-------------------------------------|-------------|--------------------|

		-1.5(Vibrato)
|-----------|-----------------7--7-----7--|-7--x-x-x-x-7--7-----7\\-|
|-----------|----7\\  //7------7--7-----7--|-7--x-x-x-x-7--7-----7\\-|
|-7---------|----7\\\\//7-------7--7-----7--|-7--x-x-x-x-7--7-----7\\-|
|----7^9----|------\\/---------------------|------------------------|
|-----------|-----------------------------|------------------------|
|-----------|-----------------------------|------------------------|
  development and support by
dmitry ivanov