rock
 
|tablatures   |lyrics   |discussion forums   |more tabs @ XGuitar.com

Santana tabs

I Love You Much Too Much bass tab

santana - i_love_you_much_too_much

Basstab by Jan Bjorklund, Finland

You are welcome to request for basstabs!
Bienvenidos a pedirme transcripciones para el bajo!
Fingering and positions as suggested by TablEdit.

TablEdited by Jan Bjorklund for Tran, Canada
Tuning : E A D G 	Time Signature: 4/4

 |       |       |       |        |       |       |
   |
|--------------------------------|--------------------------------|
|--------------------------------|--------------------------------|
|0-----------0---0-----------0---|2-----------2---2-----------2---|
|--------------------------------|--------------------------------|

 |       |       |       |        |       |       |
   |
|--------------------------------|--------------------------------|
|2-----------2---0-----------0---|--------------------------------|
|--------------------------------|3-----------3---3-----------3---|
|--------------------------------|--------------------------------|

 |       |       |       |        |       |       |
   |
|--------------------------------|--------------------------------|
|--------------------------------|--------------------------------|
|0-----------0---0-----------0---|2-----------2---2-----------2---|
|--------------------------------|--------------------------------|

 |       |       |       |        |       |       |
   |
|--------------------------------|--------------------------------|
|2-----------2-------------------|2/----1-------------------------|
|----------------2-----------2---|--------------------------------|
|--------------------------------|--------------------------------|

 |       |       |       |        |       |       |
   |
|--------------------------------|--------------------------------|
|--------------------------------|--------------------------------|
|0-----------0---0-----------0---|2-----------2---2-----------2---|
|--------------------------------|--------------------------------|

 |       |       |       |        |       |       |
   |
|--------------------------------|--------------------------------|
|2---------------0---------------|--------------------------------|
|--------------------------------|3-----------3---3-----------3---|
|--------------------------------|--------------------------------|

 |       |       |       |        |       |       |
   |
|--------------------------------|--------------------------------|
|--------------------------------|--------------------------------|
|0-----------0---0-----------0---|2-----------2---2-----------2---|
|--------------------------------|--------------------------------|

 |       |       |       |        |       |       |
   |
|----------------4-----------4---|--------------------------------|
|2-----------2-------------------|2-------------------------------|
|--------------------------------|--------------------------------|
|--------------------------------|--------------------------------|

 |       |       |       |        |       |       |
   |
|--------------------------------|--------------------------------|
|--------------------------------|0-----------0-------0-------0---|
|0-----------0-------0-------0---|--------------------------------|
|--------------------------------|--------------------------------|

 |       |       |       |        |       |       |
   |
|0-------------------------------|--------------------------------|
|------------4-------------2-0---|--------------------------------|
|--------------------------------|3-----------2-------0-------0---|
|--------------------------------|--------------------------------|

 |       |       |       |        |       |       |
   |
|--------------------------------|--------------------------------|
|--------------------------------|--------------------------------|
|--------------------------------|3-----------3-------3-------3---|
|2-----------2-------2-------2---|--------------------------------|

 |       |       |       |        |       |       |
   |
|--------------------------------|--------------------------------|
|--------------------------------|--------------------------------|
|2-----------2-------------------|2-------------------------------|
|----------------2-----------2---|--------------------------------|

 |       |       |       |        |       |       |
   |
|--------------------------------|--------------------------------|
|--------------------------------|--------------------------------|
|0-----------0---0-----------0---|2-----------2---2-----------2---|
|--------------------------------|--------------------------------|

 |       |       |       |        |       |       |
   |
|--------11--9-----------9-------|--------------------------------|
|----9-----------------------12--|--------------------------------|
|--------------------12----------|3-----------3---3-----------3---|
|12--------------10--------------|--------------------------------|

 |       |       |       |        |       |       |
   |
|--------------------------------|--------------------------------|
|--------------------------------|--------------------------------|
|0-----------0---0-----------0---|2-----------2---2-----------2---|
|--------------------------------|--------------------------------|

 |       |       |       |        |       |       |
   |
|--------------------------------|--------------------------------|
|2-----------2-------------------|2-------------------------------|
|----------------2-----------2---|--------------------------------|
|--------------------------------|--------------------------------|

 |       |       |       |        |       |       |
   |
|--------------------------------|--------------------------------|
|--------------------------------|0-----------0-------0-------0---|
|0-----------0-------0-------0---|--------------------------------|
|--------------------------------|--------------------------------|

 |       |       |       |        |       |       |
   |
|--------------------------------|--------------------------------|
|--------------------------------|--------------------------------|
|----------------0-------2-------|3-----------3-------3/1---------|
|3-----------3-------------------|--------------------------------|

 |       |       |       |        |       |       |
   |
|--------------------------------|--------------------------------|
|--------------------------------|--------------------------------|
|--------------------------------|2-----------2-------2-------2---|
|2-----------2-------2-------2---|--------------------------------|

 |       |       |       |        |       |       |
   |
|--------------------------------|--------------------------2-4---|
|--------------------------------|2-------------------------------|
|--------------------------------|--------------------------------|
|0-------------------------------|--------------------------------|

 |       |       |       |        |       |       |
   |
|--------------------------------|--------------------------------|
|--------------------------------|--------------------------------|
|--------------------------------|--------------------------------|
|0-------------------------------|0-------------------------------|

 |       |       |       |        |       |       |
   |
|--------------------------------|--------------------------------|
|--------------------------------|--------------------4-------4---|
|--------------------------------|2---------------2-------------2-|
|0-------------------------------|--------------------------------|

 |       |       |       |        |       |       |
   |
|--------------------------------|--------------------------------|
|----------------4---2-----------|--------------------------------|
|----------------------------2---|2---------------2---------------|
|0-------------------------------|--------------------2-----------|

 |       |       |       |        |       |       |
   |
|--------------------------------|--------------------------------|
|----------------4---2-----------|--------4-----4---------4-----4-|
|----------------------------2---|2-----2---------2-----2---------|
|0-------------------------------|--------------------------------|

 |       |       |       |        |       |       |
   |
|--------4-----4---------4-----4-|--------------------------------|
|2-----2---------2-----2---------|--------4-----4---------4-----4-|
|--------------------------------|2-----2---------2-----2---------|
|--------------------------------|--------------------------------|

 |       |       |       |        |       |       |
   |
|--------4-----4---------4-----4-|--------------------------------|
|2-----2---------2-----2---------|---previus 2 bars of samba------|
|--------------------------------|-----contiues for awhile--------|
|--------------------------------|--------------------------------|

 |       |       |       |        |       |       |
   |
|--------------------------------|--------------------------------|
|--------4---4-----------4---4---|--------------------------------|
|2-----2---------2---2-----------|--------------2---------2-----2-|
|--------------------------------|0-----0---------0-----0---------|

 |       |       |       |        |       |       |
   |
|--------------------------------|--------------------------------|
|--------------------------------|--------------------------------|
|2-----2---------2-----2---------|--------2-----2---------2-----2-|
|--------2-----2---------2-----2-|0-----0---------0-----0---------|

 |       |       |       |        |       |       |
   |
|--------------------------------|--------------------------------|
|--------------------------------|----previus 2 bars of samba-----|
|2-----2---------2-----2---------|------contiues for awhile-------|
|--------2-----2---------2-----2-|--------------------------------|

 |       |       |       |        |       |       |
   |
|--------------------------------|--------------------------------|
|--------------------------------|--------------------------------|
|--------------------------------|--------------------------------|
|0-------------------------------|0-------------------------------|

 |       |       |       |        |       |       |
   |
|--------------------------------|--------------------------------|
|--------------------------------|------------The end-------------|
|--------------------------------|--------------------------------|
|0-------------------------------|--------------------------------|


Created with TablEdit http://www.tabledit.com/
  development and support by
dmitry ivanov