rock
 
|tablatures   |lyrics   |discussion forums   |more tabs @ XGuitar.com

Santana tabs

Hold On bass tab

SANTANA - Hold on  basstab

TablEdited by Jan Bjorklund   
You are welcome to request for tabs!
Fingering and positions as suggested by TablEdit, please use common sense.



Tuning : E A D G 	Time Signature: 4/4

  |       |       |       |        |       |       |       |
|--------------------------------|--------------------------------|
|--------------------------------|----------------------------1---|
|--------------------------------|--------------------------------|
|3---------------3---3-------1---|----------------1---1-----------|

  |       |       |       |        |       |       |       |
|--------------------------------|--------------------------------|
|----------------1---1-----------|------------0-------------------|
|----------------------------3---|--------------------------------|
|--------------------------------|--------------------------------|

  |       |       |       |        |       |       |       |
|--------------------------------|--------------------------------|
|--------------------------------|----------------------------1---|
|--------------------------------|--------------------------------|
|3---------------3---3-------1---|----------------1---1-----------|

  |       |       |       |        |       |       |       |
|--------------------------------|--------------------------------|
|----------------1---1-----------|------------0-------------------|
|----------------------------3---|--------------------------------|
|--------------------------------|--------------------------------|

  |       |       |       |        |       |       |       |
|--------------------------------|--------------------------------|
|--------------------------------|----------------------------1---|
|--------------------------------|--------------------------------|
|3---------------3---3-------1---|----------------1---1-----------|

  |       |       |       |        |       |       |       |
|--------------------------------|--------------------------------|
|----------------1---1-----------|------------0-------------------|
|----------------------------3---|--------------------------------|
|--------------------------------|--------------------------------|

  |       |       |       |        |       |       |       |
|--------------------------------|--------------------------------|
|--------------------------------|----------------------------1---|
|--------------------------------|--------------------------------|
|3---------------3---3-------1---|----------------1---1-----------|

  |       |       |       |        |       |       |       |
|--------------------------------|--------------------------------|
|----------------1---1-----------|------------0-------------------|
|----------------------------3---|--------------------------------|
|--------------------------------|--------------------------------|

  |       |       |       |        |       |       |       |
|--------------------------------|--------------------------------|
|--------------------------------|----------------------------1---|
|--------------------------------|--------------------------------|
|3---------------3---3-------1---|----------------1---1-----------|

  |       |       |       |        |       |       |       |
|--------------------------------|--------------------------------|
|----------------1---1-----------|----------------------------0---|
|----------------------------1---|----------------1---1-----------|
|--------------------------------|--------------------------------|

  |       |       |       |        |       |       |       |
|--------------------------------|--------------------------------|
|----------------0---0-------0---|--------------------------------|
|--------------------------------|--------------------------------|
|--------------------------------|--------------------------------|

  |       |       |       |        |       |       |       |
|--------------------------------|--------------------------------|
|--------------------------------|----------------------------1---|
|--------------------------------|--------------------------------|
|3---------------3---3-------1---|----------------1---1-----------|

  |       |       |       |        |       |       |       |
|--------------------------------|--------------------------------|
|----------------1---1-----------|------------0-------------------|
|----------------------------3---|--------------------------------|
|--------------------------------|--------------------------------|

  |       |       |       |        |       |       |       |
|--------------------------------|--------------------------------|
|--------------------------------|----------------------------1---|
|--------------------------------|--------------------------------|
|3---------------3---3-------1---|----------------1---1-----------|

  |       |       |       |        |       |       |       |
|--------------------------------|--------------------------------|
|----------------1---1-----------|------------0-------------------|
|----------------------------3---|--------------------------------|
|--------------------------------|--------------------------------|

  |       |       |       |        |       |       |       |
|--------------------------------|--------------------------------|
|--------------------------------|----------------------------1---|
|--------------------------------|--------------------------------|
|3---------------3---3-------1---|----------------1---1-----------|

  |       |       |       |        |       |       |       |
|--------------------------------|--------------------------------|
|----------------1---1-----------|----------------------------0---|
|----------------------------1---|----------------1---1-----------|
|--------------------------------|--------------------------------|

  |       |       |       |        |       |       |       |
|--------------------------------|--------------------------------|
|----------------0---0-------0---|--------------------------------|
|--------------------------------|--------------------------------|
|--------------------------------|--------------------------------|

  |       |       |       |        |       |       |       |
|--------------------------------|--------------------------------|
|1---------------1---1-----------|--------------------------------|
|--------------------------------|--------------------------------|
|----------------------------1---|----------------1---1-------2---|

  |       |       |       |        |       |       |       |
|--------------------------------|--------------------------------|
|--------------------------------|--------------------------------|
|--------------------------------|--------------------------------|
|----------------2---2-------3---|--------3-------1---1-------1---|

  |       |       |       |        |       |       |       |
|--------------------------------|--------------------------------|
|1---------------1---1-----------|----------------------------0---|
|----------------------------1---|----------------1---1-----------|
|--------------------------------|--------------------------------|

  |       |       |       |        |       |       |       |
|--------------------------------|--------------------------------|
|----------------0---0-----------|--------------------------------|
|--------------------------------|----------------1-------1-------|
|----------------------------1---|--------1-----------------------|

  |       |       |       |        |       |       |       |
|--------------------------------|--------------------------------|
|1---------------1---1-----------|--------------------------------|
|--------------------------------|--------------------------------|
|----------------------------1---|----------------1---1-------2---|

  |       |       |       |        |       |       |       |
|--------------------------------|--------------------------------|
|--------------------------------|--------------------------------|
|--------------------------------|--------------------------------|
|----------------2---2-------3---|--------3-------1---1-------1---|

  |       |       |       |        |       |       |       |
|--------------------------------|--------------------------------|
|1---------------1---1-----------|----------------------------0---|
|----------------------------1---|----------------1---1-----------|
|--------------------------------|--------------------------------|

  |       |       |       |        |       |       |       |
|--------------------------------|--------------------------------|
|--------------------------------|0-------------------------------|
|--------------------------------|--------------------------------|
|--------------------------------|--------------------------------|

  |       |       |       |        |       |       |       |
|--------------------------------|--------------------------------|
|--------------------------------|----------------------------1---|
|--------------------------------|--------------------------------|
|3---------------3---3-------1---|----------------1---1-----------|

  |       |       |       |        |       |       |       |
|--------------------------------|--------------------------------|
|----------------1---1-----------|------------0-------------------|
|----------------------------3---|--------------------------------|
|--------------------------------|--------------------------------|

  |       |       |       |        |       |       |       |
|--------------------------------|--------------------------------|
|--------------------------------|----------------------------1---|
|--------------------------------|--------------------------------|
|3---------------3---3-------1---|----------------1---1-----------|

  |       |       |       |        |       |       |       |
|--------------------------------|--------------------------------|
|----------------1---1-----------|------------0-------------------|
|----------------------------3---|--------------------------------|
|--------------------------------|--------------------------------|

  |       |       |       |        |       |       |       |
|--------------------------------|--------------------------------|
|--------------------------------|----------------------------1---|
|--------------------------------|--------------------------------|
|3---------------3---3-------1---|----------------1---1-----------|

  |       |       |       |        |       |       |       |
|--------------------------------|--------------------------------|
|----------------1---1-----------|------------0-------------------|
|----------------------------3---|--------------------------------|
|--------------------------------|--------------------------------|

  |       |       |       |        |       |       |       |
|--------------------------------|--------------------------------|
|--------------------------------|----------------------------1---|
|--------------------------------|--------------------------------|
|3---------------3---3-------1---|----------------1---1-----------|

  |       |       |       |        |       |       |       |
|--------------------------------|--------------------------------|
|----------------1---1-----------|------------0-------------------|
|----------------------------3---|--------------------------------|
|--------------------------------|--------------------------------|

  |       |       |       |        |       |       |       |
|--------------------------------|--------------------------------|
|--------------------------------|----------------------------1---|
|--------------------------------|--------------------------------|
|3---------------3---3-------1---|----------------1---1-----------|

  |       |       |       |        |       |       |       |
|--------------------------------|--------------------------------|
|----------------1---1-----------|----------------------------0---|
|----------------------------1---|----------------1---1-----------|
|--------------------------------|--------------------------------|

  |       |       |       |        |       |       |       |
|--------------------------------|--------------------------------|
|----------------0---0-------0---|--------------------------------|
|--------------------------------|--------------------------------|
|--------------------------------|--------------------------------|

  |       |       |       |        |       |       |       |
|--------------------------------|--------------------------------|
|1---------------1---1-----------|--------------------------------|
|--------------------------------|--------------------------------|
|----------------------------1---|----------------1---1-------2---|

  |       |       |       |        |       |       |       |
|--------------------------------|--------------------------------|
|--------------------------------|--------------------------------|
|--------------------------------|--------------------------------|
|----------------2---2-------3---|--------3-------1---1-------1---|

  |       |       |       |        |       |       |       |
|--------------------------------|--------------------------------|
|1---------------1---1-----------|----------------------------0---|
|----------------------------1---|----------------1---1-----------|
|--------------------------------|--------------------------------|

  |       |       |       |        |       |       |       |
|--------------------------------|--------------------------------|
|----------------0---0-----------|--------------------------------|
|--------------------------------|----------------1-------1-------|
|----------------------------1---|--------1-----------------------|

  |       |       |       |        |       |       |       |
|--------------------------------|--------------------------------|
|1---------------1---1-----------|--------------------------------|
|--------------------------------|--------------------------------|
|----------------------------1---|----------------1---1-------2---|

  |       |       |       |        |       |       |       |
|--------------------------------|--------------------------------|
|--------------------------------|--------------------------------|
|--------------------------------|--------------------------------|
|----------------2---2-------3---|--------3-------1---1-------1---|

  |       |       |       |        |       |       |       |
|--------------------------------|--------------------------------|
|1---------------1---1-----------|----------------------------0---|
|----------------------------1---|----------------1---1-----------|
|--------------------------------|--------------------------------|

  |       |       |       |        |       |       |       |
|--------------------------------|--------------------------------|
|--------------------------------|0-------------------------------|
|--------------------------------|--------------------------------|
|--------------------------------|--------------------------------|

  |       |       |       |        |       |       |       |
|--------------------------------|--------------------------------|
|--------------------------------|--------------------------------|
|--------------------------------|--------------------------------|
|3---3---3---3---3---3---3---3---|3---3---3---3---3---3---3---3---|

  |       |       |       |        |       |       |       |
|--------------------------------|--------------------------------|
|--------------------------------|--------------------------------|
|--------------------------------|--------------------------------|
|3---3---3---3---3---3---3---3---|3---3---3---3---3---3---3---3---|

  |       |       |       |        |       |       |       |
|--------------------------------|--------------------------------|
|--------------------------------|--------------------------------|
|--------------------------------|--------------------------------|
|3---3---3---3---3---3---3---3---|3---3---3---3---3---3---3---3---|

  |       |       |       |        |       |       |       |
|--------------------------------|--------------------------------|
|--------------------------------|--------------------------------|
|--------------------------------|--------------------------------|
|3---3---3---3---3---3---3---3---|3---3---3---3---3---3---3---3---|

  |       |       |       |        |       |       |       |
|--------------------------------|--------------------------------|
|--------------------------------|--------------------------------|
|--------------------------------|--------------------------------|
|3---3---3---3---3---3---3---3---|3---3---3---3---3---3---3---3---|

  |       |       |       |        |       |       |       |
|--------------------------------|--------------------------------|
|--------------------------------|--------------------------------|
|--------------------------------|--------------------------------|
|3---3---3---3---3---3---3---3---|3---3---3---3---3---3---3---3---|

  |       |       |       |        |       |       |       |
|--------------------------------|--------------------------------|
|--------------------------------|--------------------------------|
|--------------------------------|--------------------------------|
|3---3---3---3---3---3---3---3---|3---3---3---3---3---3---3---3---|

  |       |       |       |        |       |       |       |
|--------------------------------|--------------------------------|
|--------------------------------|1-------1-----------------------|
|--------------------------------|------------------------1-------|
|3---3---3---3---3---3---3---3---|----------------1---------------|

  |       |       |       |        |       |       |       |
|--------------------------------|--------------------------------|
|1---------------1---1-----------|--------------------------------|
|--------------------------------|--------------------------------|
|----------------------------1---|----------------1---1-------2---|

  |       |       |       |        |       |       |       |
|--------------------------------|--------------------------------|
|--------------------------------|--------------------------------|
|--------------------------------|--------------------------------|
|----------------2---2-------3---|--------3-------1---1-------1---|

  |       |       |       |        |       |       |       |
|--------------------------------|--------------------------------|
|1---------------1---1-----------|----------------------------0---|
|----------------------------1---|----------------1---1-----------|
|--------------------------------|--------------------------------|

  |       |       |       |        |       |       |       |
|--------------------------------|--------------------------------|
|----------------0---0-----------|--------------------------------|
|--------------------------------|----------------1-------1-------|
|----------------------------1---|--------1-----------------------|

  |       |       |       |        |       |       |       |
|--------------------------------|--------------------------------|
|1---------------1---1-----------|--------------------------------|
|--------------------------------|--------------------------------|
|----------------------------1---|----------------1---1-------2---|

  |       |       |       |        |       |       |       |
|--------------------------------|--------------------------------|
|--------------------------------|--------------------------------|
|--------------------------------|--------------------------------|
|----------------2---2-------3---|--------3-------1---1-------1---|

  |       |       |       |        |       |       |       |
|--------------------------------|--------------------------------|
|1---------------1---1-----------|----------------------------0---|
|----------------------------1---|----------------1---1-----------|
|--------------------------------|--------------------------------|

  |       |       |       |        |       |       |       |
|--------------------------------|--------------------------------|
|----------------0---0-----------|--------------------------------|
|--------------------------------|----------------1-------1-------|
|----------------------------1---|--------1-----------------------|

  |       |       |       |        |       |       |       |
|--------------------------------|--------------------------------|
|1---------------1---1-----------|--------------------------------|
|--------------------------------|--------------------------------|
|----------------------------1---|----------------1---1-------2---|

  |       |       |       |        |       |       |       |
|--------------------------------|--------------------------------|
|--------------------------------|--------------------------------|
|--------------------------------|--------------------------------|
|----------------2---2-------3---|--------3-------1---1-------1---|

  |       |       |       |        |       |       |       |
|--------------------------------|--------------------------------|
|1---------------1---1-----------|----------------------------0---|
|----------------------------1---|----------------1---1-----------|
|--------------------------------|--------------------------------|

  |       |       |       |        |       |       |       |
|--------------------------------|--------------------------------|
|----------------0---0-----------|--------------------------------|
|--------------------------------|----------------1-------1-------|
|----------------------------1---|--------1-----------------------|

  |       |       |       |        |       |       |       |
|--------------------------------|--------------------------------|
|1---------------1---1-----------|--------------------------------|
|--------------------------------|--------------------------------|
|----------------------------1---|----------------1---1-------2---|

  |       |       |       |        |       |       |       |
|--------------------------------|--------------------------------|
|--------------------------------|--------------------------------|
|--------------------------------|--------------------------------|
|----------------2---2-------3---|--------3-------1---1-------1---|

  |       |       |       |        |       |       |       |
|--------------------------------|--------------------------------|
|1---------------1---1-----------|----------------------------0---|
|----------------------------1---|----------------1---1-----------|
|--------------------------------|--------------------------------|

  |       |       |       |        |       |       |       |
|--------------------------------|--------------------------------|
|----------------0---0-----------|--------------------------------|
|--------------------------------|----------------1-------1-------|
|----------------------------1---|--------1-----------------------|

  |       |       |       |        |       |       |       |
|--------------------------------|--------------------------------|
|1---------------1---1-----------|--------------------------------|
|--------------------------------|--------------------------------|
|----------------------------1---|----------------1---1-------2---|

  |       |       |       |        |       |       |       |
|--------------------------------|--------------------------------|
|--------------------------------|--------------------------------|
|--------------------------------|--------------------------------|
|----------------2---2-------3---|--------3-------1---1-------1---|

  |       |       |       |        |       |       |       |
|--------------------------------|--------------------------------|
|1---------------1---1-----------|----------------------------0---|
|----------------------------1---|----------------1---1-----------|
|--------------------------------|--------------------------------|

  |       |       |       |        |       |       |       |
|--------------------------------|--------------------------------|
|----------------0---0-----------|--------------------------------|
|--------------------------------|----------------1-------1-------|
|----------------------------1---|--------1-----------------------|

  |       |       |       |        |       |       |       |
|--------------------------------|--------------------------------|
|1---------------1---1-----------|--------------------------------|
|--------------------------------|--------------------------------|
|----------------------------1---|----------------1---1-------2---|

  |       |       |       |        |       |       |       |
|--------------------------------|--------------------------------|
|--------------------------------|--------------------------------|
|--------------------------------|--------------------------------|
|----------------2---2-------3---|--------3-------1---1-------1---|

  |       |       |       |        |       |       |       |
|--------------------------------|--------------------------------|
|1---------------1---1-----------|----------------------------0---|
|----------------------------1---|----------------1---1-----------|
|--------------------------------|--------------------------------|

  |       |       |       |        |       |       |       |
|--------------------------------|--------------------------------|
|----------------0---0-----------|--------------------------------|
|--------------------------------|----------------1-------1-------|
|----------------------------1---|--------1-----------------------|



Created with TablEdit http://www.tabledit.com/
  development and support by
dmitry ivanov