rock
 
|tablatures   |lyrics   |discussion forums   |more tabs @ XGuitar.com

Santana tabs

Europa (from "Santana the Ultimate Collection") bass tab

Author/Artist: Santana
Title: Europa
Transcribed By: Cliff Wang
E-mail: win98pc@optonline.net

This is a great song for bass.

Intro
G--------------------------------------------------------------------------
D-----------------------1--1-1---------------------------------------------
A--1---1-1---1---1-1---1---------------------------------------3---3-------
E-----------1---------------------4--4-4---4-3--3-3---3---3-3--------------

---------------------------------------------------------------------------
-----------------------1--1-1----------------------------------------------
--1---1-1---1---1-1---1---------------------------------------3--3-3-3-----
-----------1---------------------4--4-4---4-3--3-3---3---3-3---------------

Chorus
------------10--8------------------8--7-5----------------------------------
-5----------------10---8-----8------------8-6-----6------------------------
---3-----8-----------8---8------6-------------6-------------0--1---2-2--3-3
-----3---------------------6--------------------4---3--3-3----------3-3----

Verse
rest 1 measure
---------------------------------------------------------------------------
-----------------------1--1-1----------------------------------------------
--1---1-1---1---1-1---1-------1-------------------------------3--3-3--3-3--
-----------1---------------------4--4-4---4-3--3-3---3---3-3---------------

rest 1 measure
---------------------------------------------------------------------------
-----------------------1--1-1----------------------------------------------
--1---1-1---1---1-1---1-------1-------------------------------3----3--3--3-
-----------1---------------------4--4-4---4-3--3-3---3---3-3---------------

Chorus
-----------------------------------8--7-5----------------------------------
-5-----------------9---8-----8------------8-6-----6------------------------
---3-----8-----------8---8------6-------------6-------------0--1---2-2-----
-----3---------------------6--------------------4---3--3-3----------3-3----

Solo (play 4 times)Part 1    Solo (play 6 times) Part 2
--------5------------10-----|--------------------------------10------------
---3--5---------8-10--------|-----------------------------10---------------
--3-------3-3--8--------8-8-|---1-2-3-3------1-2-3-3----8------------------
----------------------------|--------------3----------8---------3-3--5-5---

Outro (play until fade out)
--------------------------------------------
--------------------------------------------
----1-2-3-3---1-3-3-3---1-2-2-3---1-3-3-3---
--3---------3----------3--------3-----------
  development and support by
dmitry ivanov