rock
 
|tablatures   |lyrics   |discussion forums   |more tabs @ XGuitar.com

Santana tabs

Corazon Espinado bass tab

This is The main riff
|----------------|----------------|----------------|----------------|
|------0---------|----------------|------0---------|----------------|
|2---------------|------1-4---1-4-|2---------------|------1-4---1-4-|
|------------2-2-|----------------|------------2-2-|----------------|

After the drum
                                                   During the solo
|----------------|----------------|----------------|----------------|----------------|
|----------------|----------0-----|--------4-------|------0---------|----------------|
|----------------|2-2-2-------2-4-|----1-4---------|2---------------|------1-4---1-4-|
|----------------|----------------|--2---------0---|------------2-2-|----------------|

|----------------|----------------|----------------|----------------|----------------|
|------0---------|----------------|------0---------|----------------|----0-0---------|
|2---------------|------1-4---1-4-|2---------------|------1-4---1-4-|2---------------|
|------------2-2-|----------------|------------2-2-|----------------|------------2-2-|

|----------------|----------------|----------------|----------------|----------------|
|------4-----2-0-|------0---------|----------------|------0---------|----------------|
|--2-4-----------|2---------------|------1-4---1-4-|2---------------|------1-4---1-4-|
|----------------|------------2-2-|----------------|------------2-2-|----------------|
                                                                    BRIDGE
|----------------|----------------|----------------|----------------|------0---------|
|------0---------|----------------|------0-0-------|------4-2---0---|2-----------2-2-|
|2---------------|------1-4---1-4-|2---------------|--1-4-----------|----------------|
|------------2-2-|----------------|------------2-2-|----------------|----------------|

|------0-0---4---|----------------|----------------|------0---------|------0-0---4---|
|----------------|------0---------|------0-0---4---|2-----------2-2-|----------------|
|----------------|2-----------2-2-|----------------|----------------|----------------|
|----------------|----------------|----------------|----------------|----------------|

|----------------|----------------|------2---------|------------2---|----------------|
|------0---------|----------4-2---|0-----------0-0-|------4---------|------2---------|
|2-----------2-2-|------0-2-------|----------------|----------------|0-----------0-0-|
|----------------|----------------|----------------|----------------|----------------|

|----------------|------0---------|------0-----4---|----------------|----------------|
|------------2---|2-----------2-2-|----------------|----------------|----------------|
|------4---------|----------------|----------------|----------------|----------------|
|----------------|----------------|----------------|2-----2-----2-2-|----------------|

|----------------|----------------|----------------|----------------|----------------|
|------0-0-------|----------------|------0-0-------|----------------|------0-0-------|
|2---------------|------1-4---1-4-|2---------------|------1-4---1-4-|2---------------|
|------------2-2-|----------------|------------2-2-|----------------|------------2-2-|

|----------------|----------------|----------------|----------------|----------------|
|----------------|----------------|----------------|------0-0-------|----------------|
|------1-4---1-4-|2-2-2-2-2-2-2-2-|----------------|2---------------|------1-4---1-4-|
|----------------|----------------|2-2-2-2-2-------|------------2-2-|----------------|

|----------------|----------------|----------------|----------------|----------------|
|------0-0-------|----------------|------0-0-------|----------------|------0-0-------|
|2---------------|------1-4---1-4-|2---------------|------1-4---1-4-|2---------------|
|------------2-2-|----------------|------------2-2-|----------------|------------2-2-|

|----------------|----------------|----------------|----------------|----------------|
|----------------|------0-0-------|----------------|------0-0-------|----------------|
|------1-4---1-4-|2---------------|------1-4---1-4-|2---------------|------1-4---1-4-|
|----------------|------------2-2-|----------------|------------2-2-|----------------|

|----------------|----------------|----------------|----------------|----------------|
|------0-0-------|----------------|------0-0-------|----------------|------0-0-------|
|2---------------|------1-4---1-4-|2---------------|------1-4---1-4-|2---------------|
|------------2-2-|----------------|------------2-2-|----------------|------------2-2-|

|----------------|----------------|----------------|----------------|----------------|
|----------------|------0-0-------|----------------|------0-0-------|----------------|
|------1-4---1-4-|2---------------|------1-4---1-4-|2---------------|------1-4---1-4-|
|----------------|------------2-2-|----------------|------------2-2-|----------------|

|----------------|----------------|----------------|----------------|----------------|
|------0-0-------|----------------|------0-0-------|----------------|------0-0-------|
|2---------------|------1-4---1-4-|2---------------|------1-4---1-4-|2---------------|
|------------2-2-|----------------|------------2-2-|----------------|------------2-2-|

|----------------|----------------|----------------|----------------|----------------|
|----------------|------0-0-------|----------------|------0-0-------|----------------|
|------1-4---1-4-|2---------------|------1-4---1-4-|2---------------|------1-4---1-4-|
|----------------|------------2-2-|----------------|------------2-2-|----------------|

|----------------|
|----------------|
|2---2-2---------|
|----------------|

I think this tab is correct,but for any questions or comments e-mail me at
 bassking@supereva.it
  development and support by
dmitry ivanov