rock
 
|tablatures   |lyrics   |discussion forums   |more tabs @ XGuitar.com

Santana tabs

Black Magic Woman bass tab

Black Magic Woman - Santana 
  intro 
G|-----------------------------------------------------------------------------------------------
D|------7\3-----------7\3-----------7\3----------7\3----------7\3--------055----055-5/7---------- 
A|05--------5-5-05-5----5-5-05-5----5-5-05-5----5-5-05-5----5-5-50-----50---------55-055-055-055-
E|-----------------------------------------------------------------------------------------------
  

----------------------------| 
---055----055-------7-------| 
50-----50-----5/7-5---5\----| 
----------------------------| 

   verse 
G|-----5575----5575-------------------------5575-----5575---------------------------5575----------------5575- 
D|---7-------7-----------5575----5575----7---------7------------5575-----5575---7------------5575---7-------- 
A|5-------5------------7--------7-------5----------5------------7---------7-------5------------7-------5----- 
E|--------------------5--------5-------------------------------5---------5---------------------5------------- 
  

----55-------| 
--7----53----| <--Leave this part off when playing the verses following the first. 
5---------5--| 
-------------| 
  development and support by
dmitry ivanov