rock
 
|tablatures   |lyrics   |discussion forums   |more tabs @ XGuitar.com

Santana tabs

Batuka bass tab

Batuka - Santana

   intro/first segment 
G|-------------------------------------------------------------------------------------------
D|-------5640564-------5640564-------5640564-------5640564-------5640564-------5640564-------
A|-------------------------------------------------------------------------------------------
E|23--23--------23--23--------23--23--------23--23--------23--23--------23--23--------23--23-


-----------------------------------------------------------------------------------------------
5640564----------------------------056405640564056405640564056405640564056405640564056405640564
--------------022033044055066077088------------------------------------------------------------
-------23--033---------------------------------------------------------------------------------


------------|------------------------------------------------------------------------------|
-0446---6\--|----4--42--------4--42--------4--42--------4--42--------4--42--------4--42----|
------------|---4-----4------4-----4------4-----4------4-----4------4-----4------4-----4---|
------------|-24-------44--24-------44--24-------44--24-------44--24-------44--24-------44-|

  (x2)                                     repeat until end
G|86\5---------86\5-86\5--|--------------|-----------|
D|----6-6868686----6----6-|--------------|-----------|
A|------------------------|---2--24------|--2464242--|
E|------------------------|-44--4---442--|-4-------4-|

tabbed by Achilles (blue_sincere@hotmail.com)
  development and support by
dmitry ivanov