rock
 
|tablatures   |lyrics   |discussion forums   |more tabs @ XGuitar.com

Santana tabs

America bass tab

Artist: Santana feat. P.O.D	
Song:   America
Album:  Shaman

Tuning: Drop D (D A D G)

Tabbed by R4Z0R


h - hammer on
/ - slide up


Intro(0:09)

G|----10-9----7------10-9----7----------|
D|--7------10------7------10------------|
A|--------------------------------------|
D|7--------------7-------------7-7-7-7-7|


Chorus

G|--------------------------------------------| x2
D|--------------------------------------------|
A|--------------------------------------------|
D|7--7--7-10-5--5--5-5--7--7--7-10-3--3-0--0--|


Verse

G|---------------------------------------------------------------|
D|---------------------------------------------------------------|
A|---------------------------------------------------------------|
D|7--7-7-5--5-5-0--0-0-3---3-7--7-7-5--5-5-0--0-0-0h3-0h3-3h5-3h5|

G|---------------------------------------------------------|
D|------------------------------------------------------5/7|
A|--------------------------------------------------3-5----|
D|7--7-7-5--5-5-0--0-0-3-----7--7-7-5--5-5-0--0-0h3--------|


-> then play Chorus again


Verse 2

G|---------------------------------------------------------------|
D|---------------------------------------------------------------|
A|---------------------------------------------------------------|
D|7--7-7-5--5-5-0--0-0-3---3-7--7-7-5--5-5-0--0-0-0h3-0h3-3h5-3h5|

G|------------------------------|
D|---------------------------5/7|
A|-----------------------3-5----|
D|7--7-7-5--5-5-0--0-0h3--------|


-> then play Chorus again


Interlude(2:26)

G|------9-------7-------5--------------------------|
D|----7-------5-------3----------------------------|
A|-------------------------------------------------|
D|5-7-----3-5-----0-3-----0-5-5-5-5-5-5-5-5-5-5-5-5|


Solo

-> during the Solo play the Chorus riff


-> then play Chorus again


thats it... should be correct so enjoy! :)
  development and support by
dmitry ivanov