rock
 
|tablatures   |lyrics   |discussion forums   |more tabs @ XGuitar.com

Rush tabs

You Bet Your Life guitar tab

YOU BET YOUR LIFE
                               As recorded by Rush
                      (From the 1991 Album ROLL THE BONES)

Words by Peart
Music by Lee & Lifeson
Transcribed by Charles D. Bruce

Gtr I (E A D G B E) - 'GTR1'
Gtr II (E A D G B E) - 'GTR2'
Gtr III (E A D G B E) - 'Lead'
Gtr IV (E A D G B E) - 'Octave Guitar' (used in powertabs to simulate pitch
shifter)

Last Updated: 2003-10-19

  Q=132
2/4 4/4
      Gtr I
  H   E E E Q    Q  E   +E   Q   Q   E  E E   E E E Q    Q  E   +E  H..
|---|---------------7-|-(7)-----10-----10---|-----------------|--------------|
|---|-7-----8---10----|-----10--------------|-7-----8---10--7-|-(7)----------|
|---|---7-------------|--------------7----7-|---7-------------|-----9--------|
|---|-----0---0-------|--0------(0)--0----0-|-----0---0-------|-(0)-------0--|
|---|-----------------|---------------------|-----------------|--------------|
|---|-----------------|---------------------|-----------------|--------------|
      Q   Q   H          Q.     +Q   Q    E   Q   Q   H         +H        H


  E E E Q    Q  E   +E   Q   Q   E  E E   E E E Q    Q  E   +W
|---------------7-|-(7)-----10-----10---|-----------------|--------|
|-7-----8---10----|-----10--------------|-7-----8---10----|--------|
|---7-------------|--------------7----7-|---7-----------9-|-(9)----|
|-----0---0-------|--0------(0)--0----0-|-----0---0-------|--------|
|-----------------|---------------------|-----------------|--------|
|-----------------|---------------------|-----------------|--------|
  Q   Q   H          Q.     +Q   Q    E   Q   Q   H


  PM---------------------------------------------------|   PM    PM|
  E E E E E E E E   E E E Q  E E E   E E E E E E E E   E Q E Q   E E
|-----------------|----------------|-----------------|---------------|
|-----3-----------|-----3------3---|-----3-----------|-----3-----3---|
|---2---------0---|---2------2-----|---2---------0---|---------------|
|-0---------2-----|----------------|-0---------2-----|---------------|
|---------3-------|-0--------------|---------3-------|-2-------------|
|-----------------|----------------|-----------------|-0-------------|


  PM-------------------|      PM----------------|
  E E E E E E E E   Q  E H    E   E E E E E E E E    W
|-----------------|-------------|-----------------|-^3----|
|-----3-----------|----3--------|-----3-----------|-^3----|
|---2---------0---|-------------|---2---------0---|-^0----|
|-0---------2-----|-2-----------|-0---------2-----|-^0----|
|---------3-------|-0-----------|---------3-------|-^2----|
|-----------------|-------------|-----------------|-^3----|


  PM---------------------------------------------------|     PM     PM|
  E E E E E E E E   E E E Q  E E E   E E E E E E E E   E E E E E  E E E
|-----------------|----------------|-----------------|-------------------|
|-----3-----------|-----3------3---|-----3-----------|-------3------3----|
|---2---------0---|---2------2-----|---2---------0---|-------------------|
|-0---------2-----|----------------|-0---------2-----|-----2------2------|
|---------3-------|-0--------------|---------3-------|-------------------|
|-----------------|----------------|-----------------|-0-----------------|


  PM-----------------------------------------------|                 PM
  E E E E E E E E   E E E Q  E E E   E E E E E E E E   E E E E E E   E E
|-----------------|----------------|-----------------|-------------------|
|-----3-------3---|-----3------3---|-----3-------3---|-6-8---6---6-----5-|
|---2-------------|---2------2-----|---2-------------|-7-7---7---5-----5-|
|-0---------2-----|----------------|-0---------2-----|-5-5---5---5-----5-|
|---------3-------|-0--------------|---------3-------|-------------------|
|-----------------|----------------|-----------------|-------------------|


                               PM                                 PM
  Q  E E E E E E   E E E E E E E E   Q  E E E E E E   E E E E E E E E
|------3-3-3-3---|-----------------|------3-3-3-3---|-----------------|
|-6----1-3-1-0---|-6-8---6---6---5-|-6----1-3-1-0---|-6-8---6---6---5-|
|-5----0-0-0-0---|-7-7---7---5---5-|-5----0-0-0-0---|-7-7---7---5---5-|
|-5--------------|-5-5---5---5---5-|-5--------------|-5-5---5---5---5-|
|----------------|-----------------|----------------|-----------------|
|----------------|-----------------|----------------|-----------------|


  Q  E E E E E E   W          +W
|------3-3-3-3---|-2--------|-(2)----|
|-6----1-3-1-0---|-3--------|-(3)----|
|-5----0-0-0-0---|-2--------|-(2)----|
|-5--------------|-0--------|-(0)----|
|----------------|----------|--------|
|----------------|----------|--------|


  E E Q  E E Q    E E Q  E E Q    E E Q  E E Q    E E Q  E E Q
|---------------|---------------|---------------|---------------|
|-----3------3--|-----3------3--|-----3------3--|-----3------3--|
|---2-----------|---2------2----|---2-----------|----------0----|
|-0--------2----|---------------|-0--------2----|---2----2------|
|--------3------|-0------0------|--------3------|---------------|
|---------------|---------------|---------------|-0-------------|


  E E Q  E E Q    E E Q  E E Q    E E Q  E E Q    Q.   Q.   Q
|---------------|---------------|---------------|-3----3----3--|
|-----3------3--|-----3------3--|-----3------3--|-3----3----3--|
|---2-----------|---2------2----|---2-----------|-0----0----0--|
|-0--------2----|---------------|-0--------2----|-0----0----0--|
|--------3------|-0------0------|--------3------|-x----x----x--|
|---------------|---------------|---------------|-3----3----3--|


  E E Q  E E Q    E E Q  E E Q    E E Q  E E Q    E E Q  E E Q
|---------------|---------------|---------------|---------------|
|-----3------3--|-----3------3--|-----3------3--|-----3------3--|
|---2-----------|---2------2----|---2-----------|----------0----|
|-0--------2----|---------------|-0--------2----|---2----2------|
|--------3------|-0------0------|--------3------|---------------|
|---------------|---------------|---------------|-0-------------|


                                                              PM
  E E Q  E E Q    E E Q  E E Q    E E Q  E E Q    E E E E E E E E
|---------------|---------------|---------------|-------------------|
|-----3------3--|-----3------3--|-----3------3--|-6-8---6---6---5---|
|---2-----------|---2------2----|---2-----------|-7-7---7---5---5---|
|-0--------2----|---------------|-0--------2----|-5-5---5---5---5---|
|--------3------|-0------0------|--------3------|-------------------|
|---------------|---------------|---------------|-------------------|


                               PM                                 PM
  Q  E E E E E E   E E E E E E E E   Q  E E E E E E   E E E E E E E E
|------3-3-3-3---|-----------------|------3-3-3-3---|-----------------|
|-6----1-3-1-0---|-6-8---6---6---5-|-6----1-3-1-0---|-6-8---6---6---5-|
|-5----0-0-0-0---|-7-7---7---5---5-|-5----0-0-0-0---|-7-7---7---5---5-|
|-5--------------|-5-5---5---5---5-|-5--------------|-5-5---5---5---5-|
|----------------|-----------------|----------------|-----------------|
|----------------|-----------------|----------------|-----------------|


  Q  E E E E E E   W          +W
|------3-3-3-3---|-2--------|-(2)----|
|-6----1-3-1-0---|-3--------|-(3)----|
|-5----0-0-0-0---|-2--------|-(2)----|
|-5--------------|-0--------|-(0)----|
|----------------|----------|--------|
|----------------|----------|--------|


    >                                     >
    W                 +W                  W                 +W
||--3---------------|-(3)---------------|-----------------|--------------------|
||o-3---------------|-(3)---------------|-----------------|--------------------|
||--0---------------|-(0)---------------|-2---------------|-(2)----------------|
||--0---------------|-(0)---------------|-2---------------|-(2)----------------|
||o-x---------------|-(x)---------------|-0---------------|-(0)----------------|
||--3---------------|-(3)---------------|-----------------|--------------------|
|
|   Gtr II
|   E E E E E E E E    E  E E E E E E E   E E E E E E E E    E  E E E E E E
E
||------------------|-------------------|-----------------|--------------------|
||o-8-8-8-8-8-8-8-8-|--8--8-8-8-8-8-8-8-|-8-8-8-8-8-8-8-8-|--8--8-8-8-8-8-8-8--|
||--0-0-0-0-0-0-0-0-|--0--0-0-0-0-0-0-0-|-0-0-0-0-0-0-0-0-|--0--0-0-0-0-0-0-0--|
||------------------|-------------------|-----------------|--------------------|
||o-5-5-5-5-5-5-5-5-|--7--7-7-0-0-0-5-7-|-5-5-5-5-5-5-5-5-|--7--7-7-0-0-0-5-7--|
||------------------|-------------------|-----------------|--------------------|


  >                                     >
  W                 +W                  W                 +W
|-----------------|-------------------|-----------------|--------------------||
|-----------------|-------------------|-3---------------|-(3)---------------o||
|-----------------|-------------------|-2---------------|-(2)----------------||
|-2---------------|-(2)---------------|-0---------------|-(0)----------------||
|-2---------------|-(2)---------------|-----------------|-------------------o||
|-0---------------|-(0)---------------|-----------------|--------------------||
|
| Gtr II
| E E E E E E E E    E  E E E E E E E   E E E E E E E E    E  E E E E E E E
|-----------------|-------------------|-----------------|--------------------||
|-8-8-8-8-8-8-8-8-|--8--8-8-8-8-8-8-8-|-8-8-8-8-8-8-8-8-|--8--8-8-8-8-8-8-8-o||
|-0-0-0-0-0-0-0-0-|--0--0-0-0-0-0-0-0-|-0-0-0-0-0-0-0-0-|--0--0-0-0-0-0-0-0--||
|-----------------|-------------------|-----------------|--------------------||
|-5-5-5-5-5-5-5-5-|--7--7-7-0-0-0-5-7-|-5-5-5-5-5-5-5-5-|--7--7-7-0-0-0-5-7-o||
|-----------------|-------------------|-----------------|--------------------||


4/4
  Gtr I
  E E E Q    Q  E   +E   Q   Q   E  E E   E E E Q    Q  E   +E  H..
|---------------7-|-(7)-----10-----10---|-----------------|----------------|
|-7-----8---10----|-----10--------------|-7-----8---10--7-|-(7)------------|
|---7-------------|--------------7----7-|---7-------------|-----9----------|
|-----0---0-------|--0------(0)--0----0-|-----0---0-------|-(0)-------0----|
|-----------------|---------------------|-----------------|----------------|
|-----------------|---------------------|-----------------|----------------|
  Q   Q   H          Q.     +Q   Q    E   Q   Q   H         +H        H


  E E E Q    Q  E   +E   Q   Q   E  E E   E E E Q    Q  E   +W
|---------------7-|-(7)-----10-----10---|-----------------|--------|
|-7-----8---10----|-----10--------------|-7-----8---10----|--------|
|---7-------------|--------------7----7-|---7-----------9-|-(9)----|
|-----0---0-------|--0------(0)--0----0-|-----0---0-------|--------|
|-----------------|---------------------|-----------------|--------|
|-----------------|---------------------|-----------------|--------|
  Q   Q   H          Q.     +Q   Q    E   Q   Q   H


  Gtrs II, IV
   T      T        T            T      T        T
   H      H        W            H      H        W
|---------------|------------|---------------|--------|
|-<7>----<5>----|------------|-<7>----<5>----|--------|
|-<7>----<5>----|------------|-<7>----<5>----|-<5>----|
|---------------|-<7>--------|---------------|-<5>----|
|---------------|-<7>--------|---------------|--------|
|---------------|------------|---------------|--------|


                                               Gtr I
   T      T        T            T      T
   H      H        W            H      H       Q.   Q.   E
|---------------|------------|---------------|-3----3----3--|
|-<7>----<5>----|------------|-<7>----<5>----|-3----3----3--|
|-<7>----<5>----|------------|-<7>----<5>----|-0----0----0--|
|---------------|-<7>--------|---------------|-0----0----0--|
|---------------|-<7>--------|---------------|--------------|
|---------------|------------|---------------|-3----3----3--|


  Gtr I
   E  E E E  E  E E E    E  E E Q  E E E
|---------------------|------------------|
|-------3---------3---|-------3------3---|
|-----2---------------|-----2------2-----|
|--0------------2-----|------------------|
|------------3--------|--0---------------|
|---------------------|------------------|
|
| Gtrs II, IV
|  T         T           T
|  H         H           W
|---------------------|------------------|
|-<7>-------<5>-------|------------------|
|-<7>-------<5>-------|------------------|
|---------------------|-<7>--------------|
|---------------------|-<7>--------------|
|---------------------|------------------|


                                       PM
   E  E E E  E  E E E    E  E E Q  E E E
|---------------------|------------------|
|-------3---------3---|-------3------3---|
|-----2---------------|------------------|
|--0------------2-----|-----2------2-----|
|------------3--------|------------------|
|---------------------|--0---------------|
|
|  T         T           T
|  H         H           W
|---------------------|------------------|
|-<7>-------<5>-------|------------------|
|-<7>-------<5>-------|-<5>--------------|
|---------------------|-<5>--------------|
|---------------------|------------------|
|---------------------|------------------|


  Gtr I
   E  E E E  E  E E E    E  E E Q  E E E
|---------------------|------------------|
|-------3-------------|-------3------3---|
|-----2-----------0---|-----2------2-----|
|--0------------2-----|------------------|
|------------3--------|--0---------------|
|---------------------|------------------|
|
| Gtr II
|  T         T           T
|  H         H           W
|---------------------|------------------|
|-<7>-------<5>-------|------------------|
|-<7>-------<5>-------|------------------|
|---------------------|-<7>--------------|
|---------------------|-<7>--------------|
|---------------------|------------------|


                    PM              PM
   E  E E E  E  E E E   E E E E E E E E
|---------------------|-----------------|
|-------3-------------|-6-8---6---6---5-|
|-----2-----------0---|-7-7---7---5---5-|
|--0------------2-----|-5-5---5---5---5-|
|------------3--------|-----------------|
|---------------------|-----------------|
|
|  T         T
|  H         H          W
|---------------------|-----------------|
|-<7>-------<5>-------|-----------------|
|-<7>-------<5>-------|-----------------|
|---------------------|-----------------|
|---------------------|-----------------|
|---------------------|-----------------|


                               PM                                 PM
  Q  E E E E E E   E E E E E E E E   Q  E E E E E E   E E E E E E E E
|------3-3-3-3---|-----------------|------3-3-3-3---|-----------------|
|-6----1-3-1-0---|-6-8---6---6---5-|-6----1-3-1-0---|-6-8---6---6---5-|
|-5----0-0-0-0---|-7-7---7---5---5-|-5----0-0-0-0---|-7-7---7---5---5-|
|-5--------------|-5-5---5---5---5-|-5--------------|-5-5---5---5---5-|
|----------------|-----------------|----------------|-----------------|
|----------------|-----------------|----------------|-----------------|


  Q  E E E E E E   W          +W
|------3-3-3-3---|-2--------|-(2)----|
|-6----1-3-1-0---|-3--------|-(3)----|
|-5----0-0-0-0---|-2--------|-(2)----|
|-5--------------|-0--------|-(0)----|
|----------------|----------|--------|
|----------------|----------|--------|


    W                 +W                  W                 +W
||--3---------------|-(3)---------------|-----------------|--------------------|
||o-3---------------|-(3)---------------|-----------------|--------------------|
||--0---------------|-(0)---------------|-2---------------|-(2)----------------|
||--0---------------|-(0)---------------|-2---------------|-(2)----------------|
||o-x---------------|-(x)---------------|-0---------------|-(0)----------------|
||--3---------------|-(3)---------------|-----------------|--------------------|
|
|   Gtr II
|   E E E E E E E E    E  E E E E E E E   E E E E E E E E    E  E E E E E E
E
||------------------|-------------------|-----------------|--------------------|
||o-8-8-8-8-8-8-8-8-|--8--8-8-8-8-8-8-8-|-8-8-8-8-8-8-8-8-|--8--8-8-8-8-8-8-8--|
||--0-0-0-0-0-0-0-0-|--0--0-0-0-0-0-0-0-|-0-0-0-0-0-0-0-0-|--0--0-0-0-0-0-0-0--|
||------------------|-------------------|-----------------|--------------------|
||o-5-5-5-5-5-5-5-5-|--7--7-7-0-0-0-5-7-|-5-5-5-5-5-5-5-5-|--7--7-7-0-0-0-5-7--|
||------------------|-------------------|-----------------|--------------------|


  W                 +W                  W                 +W
3x
|-----------------|-------------------|-----------------|--------------------||
|-----------------|-------------------|-3---------------|-(3)---------------o||
|-----------------|-------------------|-2---------------|-(2)----------------||
|-2---------------|-(2)---------------|-0---------------|-(0)----------------||
|-2---------------|-(2)---------------|-----------------|-------------------o||
|-0---------------|-(0)---------------|-----------------|--------------------||
|
| Gtr II
| E E E E E E E E    E  E E E E E E E   E E E E E E E E    E  E E E E E E E
3x
|-----------------|-------------------|-----------------|--------------------||
|-8-8-8-8-8-8-8-8-|--8--8-8-8-8-8-8-8-|-8-8-8-8-8-8-8-8-|--8--8-8-8-8-8-8-8-o||
|-0-0-0-0-0-0-0-0-|--0--0-0-0-0-0-0-0-|-0-0-0-0-0-0-0-0-|--0--0-0-0-0-0-0-0--||
|-----------------|-------------------|-----------------|--------------------||
|-5-5-5-5-5-5-5-5-|--7--7-7-0-0-0-5-7-|-5-5-5-5-5-5-5-5-|--7--7-7-0-0-0-5-7-o||
|-----------------|-------------------|-----------------|--------------------||


  Gtr I
   W                 +W
|--3---------------|-(3)-----------------|
|--3---------------|-(3)-----------------|
|--0---------------|-(0)-----------------|
|--0---------------|-(0)-----------------|
|--x---------------|-(x)-----------------|
|--3---------------|-(3)-----------------|
|
| Gtr II
|  E E E E E E E E    E  E E E  E E  E E
|------------------|---------------------|
|--8-8-8-8-8-8-8-8-|--8--8-8-8--8-8--8-8-|
|--0-0-0-0-0-0-0-0-|--0--0-0-0--0-0--0-0-|
|------------------|---------------------|
|--5-5-5-5-5-5-5-5-|--7--7-7-0--0-0--5-7-|
|------------------|---------------------|
|
| Gtr III
|  ~~
|  W                  H         Q    Q
|------------------|---------------------|
|------------------|-15--------12--------|
|-12---------------|----------------14---|
|------------------|---------------------|
|------------------|---------------------|
|------------------|---------------------|


    W                  +W
|--------------------|-----------------------|
|--------------------|-----------------------|
|---2----------------|-(2)-------------------|
|---2----------------|-(2)-------------------|
|---0----------------|-(0)-------------------|
|--------------------|-----------------------|
|
|   E  E E E E E E E    E  E E E  E E  E E
|--------------------|-----------------------|
|---8--8-8-8-8-8-8-8-|--8--8-8-8--8-8--8-8---|
|---0--0-0-0-0-0-0-0-|--0--0-0-0--0-0--0-0---|
|--------------------|-----------------------|
|---5--5-5-5-5-5-5-5-|--7--7-7-0--0-0--5-7---|
|--------------------|-----------------------|
|
|   ~~~~
|  +W                   H         Q    Q
|--------------------|-----------------------|
|--------------------|-15--------12----------|
|-(14)---------------|----------------14-----|
|--------------------|-----------------------|
|--------------------|-----------------------|
|--------------------|-----------------------|


    W                  +W
|--------------------|---------------------|
|--------------------|---------------------|
|--------------------|---------------------|
|---2----------------|-(2)-----------------|
|---2----------------|-(2)-----------------|
|---0----------------|-(0)-----------------|
|
|   E  E E E E E E E    E  E E E  E E  E E
|--------------------|---------------------|
|---8--8-8-8-8-8-8-8-|--8--8-8-8--8-8--8-8-|
|---0--0-0-0-0-0-0-0-|--0--0-0-0--0-0--0-0-|
|--------------------|---------------------|
|---5--5-5-5-5-5-5-5-|--7--7-7-0--0-0--5-7-|
|--------------------|---------------------|
|
|   ~~~~
|  +W                   H         Q    Q
|--------------------|---------------------|
|--------------------|-15--------12--------|
|-(14)---------------|----------------14---|
|--------------------|---------------------|
|--------------------|---------------------|
|--------------------|---------------------|


   W                      +W
|----------------------|------------------------|
|--3-------------------|--(3)-------------------|
|--2-------------------|--(2)-------------------|
|--0-------------------|--(0)-------------------|
|----------------------|------------------------|
|----------------------|------------------------|
|
|  E  E E  E  E E  E E     E   E   E  E E E E E
|----------------------|------------------------|
|--8--8-8--8--8-8--8-8-|---8---8---8--8-8-8-8-8-|
|--0--0-0--0--0-0--0-0-|---0---0---0--0-0-0-0-0-|
|----------------------|------------------------|
|--5--5-5--5--5-5--5-5-|---7---7---7--0-0-0-5-7-|
|----------------------|------------------------|
|
|                                  ~~~~
|  Q.      Q.      Q      +E   E  +H.
|-15------14------12---|-(12)-------------------|
|----------------------|------15-(15)-----------|
|----------------------|------------------------|
|----------------------|------------------------|
|----------------------|------------------------|
|----------------------|------------------------|


   W                 +W
|--3---------------|-(3)-----------------|
|--3---------------|-(3)-----------------|
|--0---------------|-(0)-----------------|
|--0---------------|-(0)-----------------|
|--x---------------|-(x)-----------------|
|--3---------------|-(3)-----------------|
|
|  E E E E E E E E    E  E E E  E E  E E
|------------------|---------------------|
|--8-8-8-8-8-8-8-8-|--8--8-8-8--8-8--8-8-|
|--0-0-0-0-0-0-0-0-|--0--0-0-0--0-0--0-0-|
|------------------|---------------------|
|--5-5-5-5-5-5-5-5-|--7--7-7-0--0-0--5-7-|
|------------------|---------------------|
|
|  ~~
|  W                  H         Q    Q
|------------------|---------------------|
|------------------|-15--------12--------|
|-12---------------|----------------14---|
|------------------|---------------------|
|------------------|---------------------|
|------------------|---------------------|


    W                  +W
|--------------------|------------------------|
|--------------------|------------------------|
|---2----------------|-(2)--------------------|
|---2----------------|-(2)--------------------|
|---0----------------|-(0)--------------------|
|--------------------|------------------------|
|
|   E  E E E E E E E    E  E  E E  E E   E  E
|--------------------|------------------------|
|---8--8-8-8-8-8-8-8-|--8--8--8-8--8-8---8--8-|
|---0--0-0-0-0-0-0-0-|--0--0--0-0--0-0---0--0-|
|--------------------|------------------------|
|---5--5-5-5-5-5-5-5-|--7--7--7-0--0-0---5--7-|
|--------------------|------------------------|
|
|   ~~~~
|  +W                   Q     Q    Q     Q
|--------------------|------------------------|
|--------------------|-15---------12---[15]---|
|-(14)---------------|-------12---------------|
|--------------------|------------------------|
|--------------------|------------------------|
|--------------------|------------------------|


     W                   +W
|----------------------|---------------------|
|----------------------|---------------------|
|----------------------|---------------------|
|----2-----------------|-(2)-----------------|
|----2-----------------|-(2)-----------------|
|----0-----------------|-(0)-----------------|
|
|    E   E E E E E E E    E  E E E  E E  E E
|----------------------|---------------------|
|----8---8-8-8-8-8-8-8-|--8--8-8-8--8-8--8-8-|
|----0---0-0-0-0-0-0-0-|--0--0-0-0--0-0--0-0-|
|----------------------|---------------------|
|----5---5-5-5-5-5-5-5-|--7--7-7-0--0-0--5-7-|
|----------------------|---------------------|
|
|    ~~~~~~
|   +W                    H         Q    Q
|----------------------|---------------------|
|-([15])---------------|-15--------12--------|
|----------------------|----------------14---|
|----------------------|---------------------|
|----------------------|---------------------|
|----------------------|---------------------|


   W                       +W
|-----------------------|--------------------|
|--3--------------------|--(3)---------------|
|--2--------------------|--(2)---------------|
|--0--------------------|--(0)---------------|
|-----------------------|--------------------|
|-----------------------|--------------------|
|
|  E  E E  E   E  E E E     E  E E E E E E E
|-----------------------|--------------------|
|--8--8-8--8---8--8-8-8-|---8--8-8-8-8-8-8-8-|
|--0--0-0--0---0--0-0-0-|---0--0-0-0-0-0-0-0-|
|-----------------------|--------------------|
|--5--5-5--5---5--5-5-5-|---7--7-7-0-0-0-5-7-|
|-----------------------|--------------------|
|
|  Q.      E  +H           +W
|-15------14-(14)-------|-(14)---------------|
|-----------------------|--------------------|
|-----------------------|--------------------|
|-----------------------|--------------------|
|-----------------------|--------------------|
|-----------------------|--------------------|


   W                        +W
|--3---------------------|--(3)-------------------|
|--3---------------------|--(3)-------------------|
|--0---------------------|--(0)-------------------|
|--0---------------------|--(0)-------------------|
|--x---------------------|--(x)-------------------|
|--3---------------------|--(3)-------------------|
|
|  E E E E   E   E  E  E     E  E E E  E  E  E  E
|------------------------|------------------------|
|--8-8-8-8---8---8--8--8-|---8--8-8-8--8--8--8--8-|
|--0-0-0-0---0---0--0--0-|---0--0-0-0--0--0--0--0-|
|------------------------|------------------------|
|--5-5-5-5---5---5--5--5-|---7--7-7-0--0--0--5--7-|
|------------------------|------------------------|
|
|                            ~~~~
|  H        +E   E  E  E    +H         E  E  E  E
|-22-------(22)-19-------|------------------------|
|------------------20----|------------------20-22-|
|---------------------19-|-(19)-------19-21-------|
|------------------------|------------------------|
|------------------------|------------------------|
|------------------------|------------------------|


    W                    +W
|----------------------|---------------------|
|----------------------|---------------------|
|---2------------------|-(2)-----------------|
|---2------------------|-(2)-----------------|
|---0------------------|-(0)-----------------|
|----------------------|---------------------|
|
|   E   E E E E E E  E    E  E E E  E E  E E
|----------------------|---------------------|
|---8---8-8-8-8-8-8--8-|--8--8-8-8--8-8--8-8-|
|---0---0-0-0-0-0-0--0-|--0--0-0-0--0-0--0-0-|
|----------------------|---------------------|
|---5---5-5-5-5-5-5--5-|--7--7-7-0--0-0--5-7-|
|----------------------|---------------------|
|
|   ~~~~~
|  +H..              E    H         Q    Q
|----------------------|----------------19---|
|-(22)-----------------|-----------20--------|
|-------------------19-|-19------------------|
|----------------------|---------------------|
|----------------------|---------------------|
|----------------------|---------------------|


   W                    +W
|---------------------|-------------------------------|
|---------------------|-------------------------------|
|---------------------|-------------------------------|
|--2------------------|-(2)---------------------------|
|--2------------------|-(2)---------------------------|
|--0------------------|-(0)---------------------------|
|
|  E  E E E E E  E  E    E  E E  E  E    E    E     E
|---------------------|-------------------------------|
|--8--8-8-8-8-8--8--8-|--8--8-8--8--8----8----8-----8-|
|--0--0-0-0-0-0--0--0-|--0--0-0--0--0----0----0-----0-|
|---------------------|-------------------------------|
|--5--5-5-5-5-5--5--5-|--7--7-7--0--0----0----5-----7-|
|---------------------|-------------------------------|
|
|  ~~~
|  H.            E  E    Q.      E  S  E    E    S  E
|-19---------------19-|---------19p17p15---19p==17p15-|
|---------------22----|-20----------------------------|
|---------------------|-------------------------------|
|---------------------|-------------------------------|
|---------------------|-------------------------------|
|---------------------|-------------------------------|


   W                                   +W
|------------------------------------|----------------------------------|
|--3---------------------------------|-(3)------------------------------|
|--2---------------------------------|-(2)------------------------------|
|--0---------------------------------|-(0)------------------------------|
|------------------------------------|----------------------------------|
|------------------------------------|----------------------------------|
|
|  E  E     E  E  E     E     E    E    E  E    E    E     E  E  E  E
|------------------------------------|----------------------------------|
|--8--8-----8--8--8-----8-----8----8-|--8--8----8----8-----8--8--8--8---|
|--0--0-----0--0--0-----0-----0----0-|--0--0----0----0-----0--0--0--0---|
|------------------------------------|----------------------------------|
|--5--5-----5--5--5-----5-----5----5-|--7--7----7----0-----0--0--5--7---|
|------------------------------------|----------------------------------|
|
|  E  S  E.    E  S  E.    S  S  E      E  S  E    E    E.    E  E  E
|-19p17p15----19p17p15----19p17p15---|-19p17p15---17---19----17-19-17---|
|------------------------------------|----------------------------------|
|------------------------------------|----------------------------------|
|------------------------------------|----------------------------------|
|------------------------------------|----------------------------------|
|------------------------------------|----------------------------------|


   W                    +W
|--3------------------|-(3)------------------|
|--3------------------|-(3)------------------|
|--0------------------|-(0)------------------|
|--0------------------|-(0)------------------|
|--x------------------|-(x)------------------|
|--3------------------|-(3)------------------|
|
|  E E E E   E  E E E    E  E  E E  E E  E E
|---------------------|----------------------|
|--8-8-8-8---8--8-8-8-|--8--8--8-8--8-8--8-8-|
|--0-0-0-0---0--0-0-0-|--0--0--0-0--0-0--0-0-|
|---------------------|----------------------|
|--5-5-5-5---5--5-5-5-|--7--7--7-0--0-0--5-7-|
|---------------------|----------------------|
|
|            ~~~~
|  H        +H           Q     Q    Q    Q
|-22-------(22)-------|-22---------19--------|
|---------------------|-------20--------22---|
|---------------------|----------------------|
|---------------------|----------------------|
|---------------------|----------------------|
|---------------------|----------------------|


    W                    +W
|----------------------|----------------------|
|----------------------|----------------------|
|---2------------------|-(2)------------------|
|---2------------------|-(2)------------------|
|---0------------------|-(0)------------------|
|----------------------|----------------------|
|
|   E   E E E E E E  E    E  E  E E  E E  E E
|----------------------|----------------------|
|---8---8-8-8-8-8-8--8-|--8--8--8-8--8-8--8-8-|
|---0---0-0-0-0-0-0--0-|--0--0--0-0--0-0--0-0-|
|----------------------|----------------------|
|---5---5-5-5-5-5-5--5-|--7--7--7-0--0-0--5-7-|
|----------------------|----------------------|
|
|   ~~~~~
|  +H..              E    Q     Q    Q    Q
|----------------------|-22----19-------------|
|-(22)--------------20-|------------20---22---|
|----------------------|----------------------|
|----------------------|----------------------|
|----------------------|----------------------|
|----------------------|----------------------|


   W                    +W
|---------------------|-----------------------|
|---------------------|-----------------------|
|---------------------|-----------------------|
|--2------------------|-(2)-------------------|
|--2------------------|-(2)-------------------|
|--0------------------|-(0)-------------------|
|
|  E  E E E E E  E  E    E   E  E  E  E E E E
|---------------------|-----------------------|
|--8--8-8-8-8-8--8--8-|--8---8--8--8--8-8-8-8-|
|--0--0-0-0-0-0--0--0-|--0---0--0--0--0-0-0-0-|
|---------------------|-----------------------|
|--5--5-5-5-5-5--5--5-|--7---7--7--0--0-0-5-7-|
|---------------------|-----------------------|
|
|  ~~~                                ~~
|  H.            E  E    E   E  E  E  H
|---------------------|-----------------------|
|---------------------|-20-----20-22-20-------|
|-19------------19-21-|-----21----------------|
|---------------------|-----------------------|
|---------------------|-----------------------|
|---------------------|-----------------------|


   W                    +W
|---------------------|----------------------|
|--3------------------|-(3)------------------|
|--2------------------|-(2)------------------|
|--0------------------|-(0)------------------|
|---------------------|----------------------|
|---------------------|----------------------|
|
|  E E  E E  E E  E E    E  E  E E  E E  E E
|---------------------|----------------------|
|--8-8--8-8--8-8--8-8-|--8--8--8-8--8-8--8-8-|
|--0-0--0-0--0-0--0-0-|--0--0--0-0--0-0--0-0-|
|---------------------|----------------------|
|--5-5--5-5--5-5--5-5-|--7--7--7-0--0-0--5-7-|
|---------------------|----------------------|
|
|  Q    Q    Q    Q      Q     Q    Q    Q
|---------------------|----------------------|
|-20--------20---20---|------------20---22---|
|------21-------------|-21----21-------------|
|---------------------|----------------------|
|---------------------|----------------------|
|---------------------|----------------------|


      W                   +W
|-----3-----------------|-(3)------------------|
|-----3-----------------|-(3)------------------|
|-----0-----------------|-(0)------------------|
|-----0-----------------|-(0)------------------|
|-----x-----------------|-(x)------------------|
|-----3-----------------|-(3)------------------|
|
|     E E  E  E E E E E    E  E  E E  E E  E E
|-----------------------|----------------------|
|-----8-8--8--8-8-8-8-8-|--8--8--8-8--8-8--8-8-|
|-----0-0--0--0-0-0-0-0-|--0--0--0-0--0-0--0-0-|
|-----------------------|----------------------|
|-----5-5--5--5-5-5-5-5-|--7--7--7-0--0-0--5-7-|
|-----------------------|----------------------|
|
|          ~~~
|  a  Q    H.              Q     Q    Q    Q
|-----------------------|----------------------|
|-----------------------|-20----19---22--------|
|-19h21---19------------|-----------------19---|
|-----------------------|----------------------|
|-----------------------|----------------------|
|-----------------------|----------------------|


      W                   +W
|-----------------------|----------------------|
|-----------------------|----------------------|
|-----2-----------------|-(2)------------------|
|-----2-----------------|-(2)------------------|
|-----0-----------------|-(0)------------------|
|-----------------------|----------------------|
|
|     E E  E  E E E E E    E  E  E E  E E  E E
|-----------------------|----------------------|
|-----8-8--8--8-8-8-8-8-|--8--8--8-8--8-8--8-8-|
|-----0-0--0--0-0-0-0-0-|--0--0--0-0--0-0--0-0-|
|-----------------------|----------------------|
|-----5-5--5--5-5-5-5-5-|--7--7--7-0--0-0--5-7-|
|-----------------------|----------------------|
|
|          ~~~
|  a  Q    H.              Q     Q    Q    Q
|-----------------------|----------------------|
|-----------------------|-20----19---22---20---|
|-19h21---19------------|----------------------|
|-----------------------|----------------------|
|-----------------------|----------------------|
|-----------------------|----------------------|


   W                          +W
|--------------------------|--------------------*|
|--------------------------|--------------------*|
|--------------------------|--------------------*|
|--2-----------------------|--(2)---------------*|
|--2-----------------------|--(2)---------------*|
|--0-----------------------|--(0)---------------*|
|
|  E     E E E E E E E         E  E E E E E E E
|--------------------------|--------------------*|
|--8-----8-8-8-8-8-8-8-----|---8--8-8-8-8-8-8-8-*|
|--0-----0-0-0-0-0-0-0-----|---0--0-0-0-0-0-0-0-*|
|--------------------------|--------------------*|
|--5-----5-5-5-5-5-5-5-----|---7--7-7-0-0-0-5-7-*|
|--------------------------|--------------------*|
|
|  ~~~~~~
|  W                          +W
|--------------------------|--------------------*|
|-22b24====================|=(22)---------------*|
|--------------------------|--------------------*|
|--------------------------|--------------------*|
|--------------------------|--------------------*|
|--------------------------|--------------------*|


Duration Legend
---------------
W - whole; H - half; Q - quarter; E - 8th; S - 16th; T - 32nd; X - 64th; a -
acciaccatura
+ - note tied to previous; . - note dotted; .. - note double dotted
Uncapitalized letters represent notes that are staccato (1/2 duration)
Irregular groupings are notated above the duration line
Duration letters will always appear directly above the note/fret number it
represents the
duration for.  Duration letters with no fret number below them represent
rests.  Multi-
bar rests are notated in the form Wxn, where n is the number of bars to rest
for.  Low
melody durations appear below the staff

Tablature Legend
----------------
h   - hammer-on
p   - pull-off
b   - bend
pb  - pre-bend
r   - bend release (if no number after the r, then release immediately)
/\  - slide into or out of (from/to "nowhere")
s   - legato slide
S   - shift slide
  - natural harmonic
[n]  - artificial harmonic
n(n) - tapped harmonic
~   - vibrato
tr  - trill
T   - tap
TP  - trem. picking
PM  - palm muting
\n/  - tremolo bar dip; n = amount to dip
\n  - tremolo bar down
n/  - tremolo bar up
/n\  - tremolo bar inverted dip
=   - hold bend; also acts as connecting device for hammers/pulls
<>  - volume swell (louder/softer)
x   - on rhythm slash represents muted slash
o   - on rhythm slash represents single note slash

Misc Legend
-----------
|  - bar
||  - double bar
||o - repeat start
o|| - repeat end
*|  - double bar (ending)
:  - bar (freetime)
$  - Segno
&  - Coda
Tempo markers -  = BPM(8/16=s8/s16), where s8 = swing 8ths,
s16 = swing 16ths


***************************************************************************************
* Generated using Power Tab Editor by Brad Larsen -
http://powertab.guitarnetwork.org *
***************************************************************************************
  development and support by
dmitry ivanov