rock
 
|tablatures   |lyrics   |discussion forums   |more tabs @ XGuitar.com

Rush tabs

Where's My Thing? bass tab

Where's My Thing?
By Rush
Transcribed by Eric Habbinga and Sean Jones
Any comments, questions, or corrections, please contact Sean at seanj@execpc.com
Updated 7-13-98


    w   +w   +w   +h s s s e s e   +w   +h s s s e s e   w   +h s s s e s e
+-----+----+----+----------------+----+----------------+---+----------------+
|4:-R-|----|----|----------------|----|----------------|---|----------------|
|4:---|----|----|----5-5-3-5-5-3-|----|----5-5-3-5-5-3-|---|----5-5-3-5-5-3-|
+-----+----+----+----------------+----+----------------+-0-+----------------+


  +w   +h s s s e s e   w   +h e e e e     s s s e s e e e e e
+----+----------------+---+------------++----------------------+
|----|----------------|---|------------||*---------------------|
|----|----5-5-3-5-5-3-|---|------------||*-5-5-3-5-5-3---------|
+----+----------------+-0-+----0-1-2-3-+|*-------------5-3-5-3-+


  s s s e s e e e e e  4x
+----------------------++
|---------------------*||
|-5-5-3-5-5-3---------*||
+-------------0-1-2-3--++


  Q q s s s s e   E s e e q q   Q q s s s s e
+---------------+-------------+---------------+
|---------------|-------------|---------------|
|---------------|-------------|---------------|
+-0-0-0-0-0-0-0-+-0-0-0-0-5-5-+-3-3-3-3-3-3-2-+


  e s s e e q q   Q q s s e e   e s s e e e e s s e
+---------------+-------------+---------------------+
|---------------|-------------|---------------------|
|-----------5-5-|-3-3-3-3-3---|-3-3-3-5-3-2-2-2-3-2-|
+-3-3-3-3-2-----+-----------3-+---------------------+


  e e e e e s E e   e e e e e s e e e   Q q s s e e   e s s e e q q
+-----------------+-------------------+-------------+---------------+
|-----7-----5-7-5-|-7----/9---7-9-7-5-|-------------|---------------|
|-0-0---0-0-------|---0-0---0---------|-------------|---------------|
+-----------------+-------------------+-0-0-0-0-0-0-+-0-0-0-0-0-5-5-+


  Q q s s e e   e s s e e e s s e e   Q q s s e s s   e s s e e e s s e e
+-------------+---------------------+---------------+---------------------+
|-------------|---------------------|---------------|---------------------|
|-------------|-----------5-5-5-7-5-|-3-3-3-3-3-----|-3-3-3-5-3-2-2-2-3-2-|
+-3-3-3-3-3-2-+-3-3-3-3-2-----------+-----------3-3-+---------------------+


  e e e e e e e e   e e e e e e q   s s s e s e e e e e   s s s e s e e e e e
+-----------------+---------------+---------------------+---------------------+
|-----7-----7-----|-5-----7-----5/|---------------------|---------------------|
|-0-0---0-0---0-0-|---0-0---0-0---|-5-5-3-5-5-3---------|-5-5-3-5-5-3---------|
+-----------------+---------------+-------------5-3-5-3-+-------------0-1-2-3-+


  s s s e s e e e e e   s s s e s e s s s s s s s s   s s s e s e e e e e
+---------------------+-----------------------------+---------------------+
|---------------------|-------------5---4---2---4---|---------------------|
|-5-5-3-5-5-3---------|-5-5-3-5-5-3---0---0---0---0-|-5-5-3-5-5-3---------|
+-------------5-3-5-3-+-----------------------------+-------------5-3-5-3-+


  s s s e s e e e e e   s s s e s e e e e e   s s s e s e s s s s s s s s
+---------------------+---------------------+-----------------------------+
|---------------------|---------------------|-------------5---4---2---4---|
|-5-5-3-5-5-3---------|-5-5-3-5-5-3---------|-5-5-3-5-5-3---0---0---0---0-|
+-------------0-1-2-3-+-------------5-3-5-3-+-----------------------------+


  Q q s s s s e   e s s e e q e e   Q q s s s s s s   e s s e e q q   Q q s
s e e
+---------------+-----------------+-----------------+---------------+-------------+
|-2-------------|-----------------|-----------------|---------------|-------------|
|---------------|-----------------|-----------------|-----------5-5-|-3-3-3-3-3---|
+---0-0-0-0-0-0-+-0-0-0-0-0-5-5-7-+-3-3-3-3-3-3-3-2-+-3-3-3-2-3-----+-----------3-+


  Q q s s e e   e s s e e e s s s s e   e e e e e e e e
+-------------+-----------------------+-----------------+
|-------------|-------5---------------|-----7-----5-----|
|-3-3-3-3-3---|-3-3-3---3-2-2-2-2-3-2-|-0-0---0-0---0-0-|
+-----------3-+-----------------------+-----------------+


  s s s s e e e e e e   Q q s s e e   e s s e e q e e   Q q s s e e
+-------------------4/+-------------+-----------------+-------------+
|-4-5-4-------4-5-----|-------------|-----------------|-------------|
|-------7-5-7-----7---|-------------|-----------------|-------------|
+---------------------+-0-0-0-0-0-0-+-0-0-0-0-0-5-7-5-+-3-3-3-3-3-2-+


  e e e e e e s s e   Q q s s e e   e e e s s e e e e   e e e e e e e e
+-------------------+-------------+-------------------+-----------------+
|-------------------|-------------|-----5-------------|-----7-------7---|
|---------5-5-5-7-5-|-3-3-3-3-3---|-3-3---3-3-2-2-3-2-|-0-0---0-0-0---0-|
+-3-3-2-3-----------+-----------3-+-------------------+-----------------+


  s s s s s s s s s s s s s s s s   E e s e e e s s e   E e s e e e e e
+-4-2---2-------------------------+-------------------+-----------------+
|-----4---4-2---------------------|-------------0-2---|-----------------|
|-------------5-4-5-4-2-----------|-------------------|-------------2-5-|
+-----------------------5-3-0-3-0-+-3-5-5-0-3-5-----0-+-3-5-5-0-3-5-----+


  E e s e e e s s e     E e s e e s s e e e e     E e s e e e e e
+-------------------+-------------------------+-------------------+
|-------------2-2---|5:-----------------------|4:-------------2---|
|-------------------|4:-----------------2-5---|4:-----------------|
+-3-5-5-0-3-5-----0-+---3-5-5-0-3-5-5-5-----0-+---3-5-5-0-3-5---0-+


  E e s e e e e e   E e s e e e e e   E e s e e e s s e    4x
+-----------------++------------------+--------------------++
|-----------------||*-------------2---|-------------------*||
|-------------2-5-||*-----------------|-------------------*||
+-3-5-5-0-3-5-----++--3-5-5-0-3-5---0-+-3-5-5-0-5-4-3-4-0--++


  E e s e e e e e   E e s e e e s s e   E e s e e e e e
+-------------2---+-------------------+-------------2---+
|-----------------|-------------------|-----------------|
|-3-5-5---3-5-----|-3-5-5---5-4-3-4---|-3-5-5---3-5-----|
+-------5-------5-+-------5---------5-+-------5-------5-+


  E e s e e e s s e   E e s e e e e e   E e s e e e s s e   E e s e e e s s e
+-------------------+-----------------+-------------------+-------------------+
|-------------------|-------------2---|-------------------|-------------2-2---|
|-3-5-5---5-4-3-4---|-----------------|-------------------|-------------------|
+-------5---------5-+-3-5-5-0-3-5---0-+-3-5-5-0-5-4-3-4-0-+-3-5-5-0-3-5-----0-+


  E e s e e e s s e   s s s e s e e s s e e   s s s e s e e e e e
+-------------------+-----------------------+---------------------+
|-------------------|-----------------------|---------------------|
|-------------------|-5-5-3-5-5-3-----------|-5-5-3-5-5-3---------|
+-3-5-5-0-5-4-3-4-0-+-------------5-3-3-5-3-+-------------0-1-2-3-+


  s s s e s e e e e e   s s s e s e h   s s s e s e e s s e e
+---------------------+---------------+-----------------------+
|---------------------|-------------R-|-----------------------|
|-5-5-3-5-5-3---------|-5-5-3-5-5-3---|-5-5-3-5-5-3-----------|
+-------------5-3-5-3-+---------------+-------------5-3-3-5-3-+


  s s s e s e e e e e   s s s e s e e e e e     W     Q q s s e e
+---------------------+---------------------+-----+---------------+
|---------------------|---------------------|6:-R-|4:-------------|
|-5-5-3-5-5-3---------|-5-5-3-5-5-3---------|4:---|4:-------------|
+-------------0-1-2-3-+-------------5-3-5-3-+-----+---2-2-2-2-2-0-+


  e s s e e q e e   Q q s s e e   e s s e e e e e e   Q q s s e e
+-----------------+-------------+-------------------+-------------+
|-----------------|-------------|-------------------|-------------|
|-----------2-4-2-|-------------|-----------7-7-9-7-|-5-5-5-5-5---|
+-2-2-0-2-2-------+-5-5-5-5-5-4-+-5-5-5-4-5---------+-----------5-+


  e e e e e e s s e   w   q e Q q
+-------------------+---+---------+
|-----7-------------|---|-7-R-9-7-|
|-5-5---5-4-4-4-5-4-|---|---------|
+-------------------+-7-+---------+


  Q q s s e e   e s s e e e e s s e   Q q s s e e   e s s e e e e e e
+-------------+---------------------+-------------+-------------------+
|-------------|---------------------|-------------|-------------------|
|-------------|-----------2-2-2-4-2-|-------------|-----------7-7-9-7-|
+-2-2-2-2-2-0-+-2-2-2-0-2-----------+-5-5-5-5-5-4-+-5-5-5-5-4---------+


  e s s e q s s e e   e e s s e e e e e   e e e e e e e e   e s s e e e e e e
+-------7-------7---+-------------------+---4-------4-----+---------6---8---9-+
|-------------------|-----4-4-----------|-----------------|-------------------|
|-5-5-5---5-5-5---5-|-5-7-----7-5-4-5-4-|-2---2-2-2---2-2-|-2-2-2-4---6---7---|
+-------------------+-------------------+-----------------+-------------------+


  q e q s s e e   e s s e e e e e e   Q q s s e e
+---------------+-------------------+-------------+
|---------------|-------------------|-------------|
|---7-----------|-------7-------4---|-------------|
+-0---0-0-0-0-0-+-0-0-0---0-5-5---5-+-3-3-3-3-3-2-+


  e s s e e e s s e e   Q q e e e
+---------------------+-------5---+
|---------------------|-----5-----|
|-----------5-5-5-7-5-|-3-3-------|
+-3-3-3-3-2-----------+---------3-+


  s s e e e e s s e e   e e e e e e e e   s s s s s s  s s s  s  s s  q
+---------------------+-----------------+-------------------------------+
|---------------------|-----------------|-7-----9-9---10-----12------14-|
|-3-3---3-5-2-2-2-3-2-|-----------------|---0-0-----0----0-0----12-0----|
+-----3---------------+-5-5-5-5-5-5-5-5-+-------------------------------+


  E e s e e e e e   E e s e e e s s e   E e s e e e e e   E e s e e e e e
+-----------------+-------------------+-----------------+-----------------+
|-------------2---|-------------------|-------------2---|-----------------|
|-----------------|-----------------5-|-----------------|-------------2-5-|
+-3-5-5-0-3-5---0-+-3-5-5-0-3-5-5-5---+-3-5-5-0-3-5---0-+-3-5-5-0-3-5-----+


  E e s e e e e e   E e s e e e e e   E e s e e e e e   E e s e e e e e
+-----------------+-----------------+-----------------+-----------------+
|-------------2---|-----------------|-------------2---|-----------------|
|-----------------|-------------2-5-|-----------------|-------------2-5-|
+-3-5-5-0-3-5---0-+-3-5-5-0-3-5-----+-3-5-5-0-3-5---0-+-3-5-5-0-3-5-----+


==========================================================================

                Created using the Bass Tab Creator
     __         by Mario D'Alessio (motcid!marble!dalessio)
   +|oo|+
   +|oo|+       Notes:  w = Whole  h = Half  q = Quarter
     ||                 e = 8th    s = 16th  t = 32nd  x = 64th
     ||
     ||                 Capital durations are dotted notes
     ||                   (equal to 1.5 times the duration value)
     ||
     ||             #
     ||         +----+                   +----+
  _  ||  _      |*--*+  = MEASURE        |4:--|  = TIME
  \\_||_//      |*--*+    REPEATS        |4:--|    SIGNATURES
   | [] |       +----+   (#=Num Repeats) +----+
   | || |
  /  []  \      + = TIE         ^  = TRIPLET           > = BEND
  \______/      H = HAMMER ON   \  = SLIDE TO FRET     R = Rest
                P = PULL OFF    \X = SLIDE TO NOWHERE  ~ = Trill
  development and support by
dmitry ivanov