rock
 
|tablatures   |lyrics   |discussion forums   |more tabs @ XGuitar.com

Rush tabs

Vapor Trail guitar tab

Name:    Hazza069
Artist:  Rush
Song :   Vapor Trail
For:     Guitar
Tuning:  Standard
E-mail:  ilikeporno069@hotmail.com

E-----0----------0----------0---------0---------0---------0------
B---7---7------7---7------7---7-----7---7-----7---7-----7---7----
G-----------------------7-------7-7-------7-7-------7-6-------6--
D-9--------9-9--------9------------------------------------------
A----------------------------------------------------------------
E----------------------------------------------------------------

E-----0---------0-----| im not convinced ive  |---0---------| so feel free to
B---7---7-----7---7---| got this part right   |-----3p0-----| correct it, cos
G---------------------| because i keep hearing|---------4---| it's doing my
D-9-------9-7-------7-|  this after the first |-------------| head in.
A---------------------| lot of 9's on the D   |-------------|
E---------------------|                       |-------------|

Pre-Chorus

E----------------------|
B----------------------|
G-----5-----5-----2----|
D-----5-----5-----2----|
A-----3-----3-----0----|
E-----------3----------|

Chorus:
        x2              x2
E-----2---3-3-3---|-----2---3-3-3---| during both parts i play
B-----3---3-3-3---|-----3---3-3-3---| the bas note whether its A or
G-----2---2-2-2---|-----2---2-2-2---| D on the first Beat of the bar
D-----0-----------|-----x---x-x-x---|
A-----x---x-x-x---|-----0-----------| obviously the chords arent played
E-----------------|-----------------| once its just to show how the chords
Beat= 1   2 3 4         1   2 3 4     are distributed bon each beat of the bar.


 Riff 1:

E----------------------|
B-------------12----12-|
G-14-11-14-11----14----|
D----------------------|
A----------------------|
E----------------------|

Riff 2:

E----------------------------------|
B---------12~-10~-----12~----------| each note should ast a full bar
G-----11~---------11~---------11~--| and make sure u use a lot of
D-12~---------------------12~------| vibrato to give the sort of effect
A----------------------------------| used in the song
E----------------------------------|


Riff 3:

E-14-14-14-14--|-------------|-------------|-------------|
B--------------|-15-15-15-15-|-------------|-------------| each note is spit into
G--------------|-------------|-14-14-14-14-|-------------| semi quavers, meaning
D--------------|-------------|-------------|-14-14-14-14-| each note written equals
A--------------|-------------|-------------|-------------| 4 of that note in the space
E--------------|-------------|-------------|-------------| of 1 beat of the bar
  1  2  3   4   1   2  3   4    1  2  3  4    1  2  3  4

Bridge (sorta thing):

E------------------| this is the part similar
B------------------| to the bass line.
G------------------|
D------------------|
A-2~-0---------5-9-|
E------3~-2-0~-----|


i did this tab ages ago and forgot about it, so if its not finished(which i think it is)
then im sorry (well im not really), i didnt include how much each part is play
-ed simply bcos by now u shud be able to do it urself(and also i cant be assed) so
enjoy!
  development and support by
dmitry ivanov